Cifra Club

Hoje Eu Tô Um Nojo (part. Carlos e Christian)

Melody

Cifrado: Principal (guitarra y guitarra eléctrica)
Já pensou em usar uma coleção de roupas do Cifra Club? Responda as perguntas abaixo e nos ajude nessa missão! →
tono: G
[Intro] Cm  Ab  G

E|----------------------------------------------------|
B|------------6--6-6-8-6------------------------------|
G|-5--5-8-7-5------------8-7-5--5--5-8-7-5--1-3-1-0---|
D|----------------------------------------------------|
A|----------------------------------------------------|
E|----------------------------------------------------|

[Primeira Parte]

 Cm             Ab           G 
Dá pra imaginar  a cara das mina
  Cm            Ab            G 
Quando eu chegar  de gravata borboleta
  Cm             Ab                 G 
Quando eu passar, vão pensar que é fake
  Cm              Ab         G 
Quando eu chegar na pegada shake

E|----------------------------------------------------|
B|------------6--6-6-8-6------------------------------|
G|-5--5-8-7-5------------8-7-5--5--5-8-7-5--1-3-1-0---|
D|----------------------------------------------------|
A|----------------------------------------------------|
E|----------------------------------------------------|

[Segunda Parte]

    Cm                        Ab         G
Cê terminou comigo e hoje eu não tô nem aí
    Cm                         Ab        G
Minhas amigas disse que eu preciso é curtir

[Pré-Refrão]

       Cm                      Bb          
Minha make já tá retocada, tô gostando de sair de casa
        Am                                     Ab7M
Vou chegar nessa festa chegando, ninguém me segura, a dona sou eu

[Refrão]

Cm  
Aff, hoje eu tô um nojo, cheguei pra causar
Cm                  Ab7M           G
Aff, hoje eu tô um nojo, cheguei pra arrasar
Cm                  Ab7M          G    Cm                  Ab7M   G
Aff, hoje eu tô um nojo, cheguei para rebolar e rebolar e rebolar

Cm                  Ab7M           G
Aff, hoje eu tô um nojo, cheguei pra causar
Cm                  Ab7M           G
Aff, hoje eu tô um nojo, cheguei pra arrasar
Cm                  Ab7M          G    Cm                  Ab7M   G
Aff, hoje eu tô um nojo, cheguei para rebolar e rebolar e rebolar
Composición de Carlos / Christian / Pertrelly / Tom Santos
Colaboración y revisión:
  • Getúlio Vasconcelos
13 vistas
    • ½ Tono
    • A
    • Bb
    • B
    • C
    • Db
    • D
    • Eb
    • E
    • F
    • F#
    • G
    • Ab
  • Agregar a la lista

    0 comentarios

    Ver todos los comentarios

    ¿Lograste tocar?

    0 Tocaron 1 Aún no

    ¡Graba un video tocando Hoje Eu Tô Um Nojo (part. Carlos e Christian) y envíanoslo!

    00:00 / 00:00
    Outros vídeos desta música
    Repetir Calidad Automático
    Outros vídeos desta música
    00:00 / 00:00
    Automático
    OK