Cifra Club

Aprenda

Louvor de Um Fiel

Michelle Nascimento

Tablatura: Principal (guitarra)
Tom: B
Intro: C#m  B  C#m  B  F#m

      B                       F#
É possível louvar a Deus na cela de uma prisão
        C#m
É possível cantar quando tudo está escuro
     B              F#
E a dor assola o coração
 C#m                            B     F#
Açoitados aprisionados Paulo e Silas estavam
    C#m              B            F#
Algemados feridos e mesmo assim louvavam

     B                      F#
É assim a vida de um servo fiel,
                                       C#m
Seu louvor rompe barreiras e chega no céu
                                  E                          B  F#
Não tem prisão que impeça o teu louvor. Nada pode deter um adorador
     B                      F#
É assim a vida de um servo fiel,
                                      C#m
Seu louvor rompe cadeias e chega no céu
                                  E                           Bb F#
Não tem prisão que impeça o teu louvor. Nada pode deter um adorador

          G#m                           C#m                          E
A meia noite Deus mandou um terremoto abalar a estrutura daquele lugar
                              F#                      B  F#
Tudo isso por que Deus não suporta ver um adorador sofrer.

     G#m
A terra para, o céu se abre
             F#
Muralhas caem quando você louva
G#m
Portas se abrem, a benção chega
          F#
Quando você louva a vitoria vem

G#m
Louve que as barreiras caem,
E
Louve que o céu se abre
G#m
Louve com o coração,
C#m                  F#            G#m
Adore ao Senhor em qualquer situação

Solo: G#m  G#m7+  G#m7  C#m  E  F#
E|------------------------------------15b16---15--------------------
B|------------14-14h16~~~~-----14----------------14----14h16p14-----
G|--13-15-16-----------------------14---------------16----------16--
D|------------------------------------------------------------------
A|------------------------------------------------------------------
E|------------------------------------------------------------------

E|-------------------------------------------------------------------
B|------------------------------------13/14---14-14-12--9h11p9-------
G|---------------13-15-15/16----15-13---------------------------11---
D|--13-14-13-14------------------------------------------------------
A|-------------------------------------------------------------------
E|-------------------------------------------------------------------

E|-----------------------------------9-11-12/14--------------------
B|------9-11-12---12-11-9----9-11-12-------------------------------
G|---11-------------------11---------------------------------------
D|-----------------------------------------------------------------
A|-----------------------------------------------------------------
E|-----------------------------------------------------------------
Compositor Matheus Nascimento
Colaboración y revision:
  • Douglas
  • oseias silveira
  • Michael Lemos
37 reproducciones
    • ½ Tom
    • A
    • Bb
    • B
    • C
    • Db
    • D
    • Eb
    • E
    • F
    • F#
    • G
    • Ab
  • Adicionar à lista

    0 comentarios

    Mostrar mais comentários
    00:00 / 00:00
    outros vídeos desta música
    repetir qualidade Automático
    Outros vídeos desta música
    00:00 / 00:00
    Automático
    OK