Cifra Club

Story of my life

Millencolin

Cifrado: Principal (guitarra y guitarra eléctrica)
tono: B
Intro:

Guitar 1:
E|--------------------------------------------------------
B|-----7h9-7-----------------------7h9-7------------------
G|-----------9-8-9-9---------------------9-8-9-9----------
D|-9-9-----------9-9---11-9-8--9-9-----------9-9---11-9-8-
A|-9-9-----------7-7-9---------9-9-----------7-7-9--------
E|-7-7-------------------------7-7------------------------

E|--------------------------------------------------------
B|-----7h9-7-----------------------7h9-7------------------
G|-----------9-8-9-9---------------------9-8-9-9----------
D|-9-9-----------9-9---11-9-8--9-9-----------9-9---11-9-8-
A|-9-9-----------7-7-9---------9-9-----------7-7-9--------
E|-7-7-------------------------7-7------------------------

Guitar2:
E|--------------------------------------------------------
B|--------------------------------------------------------
G|-----8h9-8------9-9---9-8-6------8h9-8------9-9---9-8-6-
D|-9-9-------11-9-9-9----------9-9-------11-9-9-9---------      
A|-9-9------------7-7xx9-------9-9------------7-7xx9------
E|-7-7-------------------------7-7------------------------

E|--------------------------------------------------------
B|--------------------------------------------------------
G|-----8h9-8------9-9---9-8-6------8h9-8------9-9---9-8-6-
D|-9-9-------11-9-9-9----------9-9-------11-9-9-9---------      
A|-9-9------------7-7xx9-------9-9------------7-7xx9------
E|-7-7-------------------------7-7------------------------

Verse:x4
E|-7-7-7-7-7-7-7-7-7-4-4-4-4-4-6-6-6-6-6-|
B|-7-7-7-7-7-7-7-7-7-5-5-5-5-5-7-7-7-7-7-|
G|-8-8-8-8-8-8-8-8-8-4-4-4-4-4-6-6-6-6-6-|
D|-9-9-9-9-9-9-9-9-9-6-6-6-6-6-8-8-8-8-8-|
A|---------------------------------------|
E|---------------------------------------|
    
Fill 1: 
E|------------------------------|
B|------------------------------|
G|-5-5-5-5-5-5--9-9-9-9-9-9-----|
D|-5-5-5-5-5-5--9-9-9-9-9-9-----|
A|-3-3-3-3-3-3--7-7-7-7-7-7-----|
E|------------------------------|

Chorus:
E|----------------------------------|
B|----------------------------------|
G|--------9-9-9-9--6-6-6------------|
D|-9-9-9--9-9-9-9--6-6-6--4-4-4-4---|
A|-9-9-9--7-7-7-7--4-4-4--4-4-4-4---|
E|-7-7-7------------------2-2-2-2---|

This part is played in the background.

E-|--------------------------------|
B-|--------------------------------|
G-|-9-9-8-9-11-11-----11-9-11------|
D-|-------------9---9--------------|
A-|--------------------------------|
E-|--------------------------------|

Interlude:

Guitar 1:

E-|-7-7-7-7-7-7-7-7-7-7-7-7-7-7-7-7-7-7-7-7-7-7-7-7-7-7-7-7-7-7-7-|
B-|-7-7-7-7-7-7-7-7-7-7-7-7-7-7-7-7-7-7-7-7-7-7-7-7-7-7-7-7-7-7-7-|
G-|-8-8-8-8-8-8-8-8-8-8-8-8-8-8-8-8-8-8-8-8-8-8-8-8-8-8-8-8-8-8-8-|
D-|-9-9-9-9-9-9-9-9-9-9-9-9-9-9-9-9-9-9-9-9-9-9-9-9-9-9-9-9-9-9-9-|
A-|---------------------------------------------------------------|
E-|---------------------------------------------------------------|

Guitar 2:

E-|-------------------------------|-----------------------------------|
B-|-------------------------------|-----------------------------------|
G-|-------------------------------|-----------------------------------|
D-|-------------------------------|-----9-9-8-8-11-11--11-11--9-9-----|
A-|-----7-7-6-6-9-9---9-9-7-7-----|-7-7-7-7-6-6--9--9---9--9--7-7-7-7-|
E-|-5-5-----------------------5-5-|-5-5---------------------------5-5-|

E-|--------------------------------------------------------------------------|
B-|--------------------------------------------------------------------------|
G-|-5-5-5-5-5-5-9-9-9-9-9-9------9-9-9-9-6-6-------------9-9-9-9-6-6---------|
D-|-5-5-5-5-5-5-9-9-9-9-9-9--9-9-9-9-9-9-6-6-4-4-4-4-9-9-9-9-9-9-6-6-4-4-4-4-|
A-|-3-3-3-3-3-3-7-7-7-7-7-7--9-9-7-7-7-7-4-4-4-4-4-4-9-9-7-7-7-7-4-4-4-4-4-4-|
E-|--------------------------7-7-------------2-2-2-2-7-7-------------2-2-2-2-|
00:00 / 00:00
Otros videos de esta canción
Repetir
Otros videos de esta canción
Composición de Erik / Larzon / Mathias / Nikola / Nikola Sarcevic
Colaboración y revisión:
  • Gregory Mercer
29 vistas
    • ½ Tono
    • A
    • Bb
    • B
    • C
    • Db
    • D
    • Eb
    • E
    • F
    • F#
    • G
    • Ab
  • Agregar a la lista

    0 comentarios

    Ver todos los comentarios

    ¿Lograste tocar?

    1 Tocaron 0 Aún no

    ¡Graba un video tocando Story of my life y envíanoslo!

    00:00 / 00:00
    OK