Cifra Club

Home Sweet Home

Mötley Crüe

Cifrado: Principal (guitarra y guitarra eléctrica)
Selo Cifra Club: esta cifra foi revisada para atender aos critérios oficiais da nossa Equipe de Qualidade.
tono: D
Home sweet home

Standard tuning for piano- EBGDAE
D tuning for guitar - DGCFAD


B- bend
H- hammer on
P- pull off
/- Slide up
- Slide down
Nh- natural harmonics
Ah- artificial harmonics
/- Big semi fast dive down with bar
X- palm mute
~- Let ring

Chords for intro- D, F#m/C#, D7/C, G
Chords for verse- D, F#m/C#, D7/C, G5

Intro- piano arranged for guitar, let ring
E|-5---5-------5----5-----5---5-------5-----5-----5---5-------5----5----|
B|-7---7--------7---------7---7---------7---------7---7---------7-------|
G|---7---7---7---7-----7----6---6---6-----6----6----5---5---5-----5---5-|
D|----------------------------------------------------------------------|
A|----------------------------------------------------------------------|
E|----------------------------------------------------------------------|

E|-7----7----7--19---------|
B|-8----8----8-----20------|
G|---7----7--7--------19---|
D|-----------------------0-|
A|-------------------------|
E|-------------------------|

Verse
E|-5---5-------5----5-----5---5--------5-----5----5---5--------5----5---|
B|-7---7--------7---------7---7----------7--------7---7----------7------|
G|---7---7---7----7----7----6----6---6-----6---6----5----5---5----5---5-|
D|----------------------------------------------------------------------|
A|----------------------------------------------------------------------|
E|----------------------------------------------------------------------|

E|-7---7----7--5---5-------5-----5-----5---5--------5-----5---|
B|-8---8----8--7---7---------7---------7---7----------7-------|
G|---7---7--7----7---7---7-----7----7----6----6---6----6----6-|
D|------------------------------------------------------------|
A|------------------------------------------------------------|
E|------------------------------------------------------------|

E|-5---5-------5------5----|
B|-7---7---------7---------|
G|---5---5---5-----5-----5-|
D|-------------------------|
A|-------------------------|
E|-------------------------|

 Let turn to feedback
E|--3----------------(3)------|
B|--3----------------(3)------|
G|--0----------------(0)------|
D|--0----------------(0)--x---|
A|------------------------x---| pick slide
E|--3----------------(3)------|

Chorus
E|----------------------------------------------------------------------------------|
B|--------------------------------------------------6-------------------------------|
G|-3--------------5-----------------7-----------------7--5--------------------------|
D|-3------0-------5--------2-------------0-/---------------7---6-5--5-3----3-2------|
A|-1--1-3----3-1--3---3--5---5--3---5-------------------------------------5------5--|
E|----------------------------------------------------------------------------------|

E|---------------------------------|
B|---------------------------------|
G|-7---7---7--7-7--7/9--9-9-97~~---|
D|---------------------------------|
A|-5---5---5--5-5--5/7--7-7-75~~---|
E|---------------------------------|

Verse- gtr 2 plays piano verse under gtr 1
E|--------3p2-------------3p2---------------2--------------2-----|
B|---3---------3-----3--------3--------2------2--------2-----2---|
G|-----2---------2-----2--------2--------2------2--------2-----2-|
D|-0---------------0---------------------------------------------|
A|----------------------------------4--------------4-------------|
E|---------------------------------------------------------------|

E|----------2----------------2------3-----3------3---|
B|-----1------1---------1------1--3-----3------3---3-|
G|---2---2------2-----2---2----------0-------0-------|
D|---------------------------------------------------|
A|-3---------------3---------------------------------|
E|---------------------------------------------------|

E|--------3p2--------------3p2-------------2---------------2--------------3p2-----|
B|---3---------3------3---------3------2-----2--------2------2-------1--------1---|
G|-----2---------2------2---------2------2-----2--------2----------2---2--------2-|
D|-0---------------0--------------------------------------------------------------|
A|-----------------------------------4------------4-------------3-----------------|
E|--------------------------------------------------------------------------------|

                Nh
E|---------3p2-----|
B|----1--------3---|
G|--2---2--------5-|
D|-----------------|
A|-----------------|
E|-----------------|

Chorus
E|----------------------------------------------------------------------------------|
B|--------------------------------------------------6-------------------------------|
G|-3--------------5-----------------7-----------------7--5--------------------------|
D|-3------0-------5--------2-------------0-/---------------7---6-5--5-3----3-2------|
A|-1--1-3----3-1--3---3--5---5--3---5-------------------------------------5------5--|
E|----------------------------------------------------------------------------------|

E|------------------------------------|
B|------------------------------------|
G|-7---7---7--7-7---9---9---9-9-9-9-9-|
D|------------------------------------|
A|-5---5---5--5-5---7---7---7-7-7-7-7-|
E|------------------------------------|

[Solo]
E|-----10----------------------------------------------------------------------------|
B|-13b----13-12-10-------------------------------------------------------------------|
G|-----------------13-12-10---------------------------------------------------10-----|
D|--------------------------12-10------------------------------------------------12--|
A|--------------------------------12-10-8-8-87-7-7-7/8-8-8-8/10-10-10-10h12----------|
E|-----------------------------------------------------------------------------------|

E|------------------------------------------------------------------------|
B|------------------------------------------------------------------------|
G|-------10--------------10-------------10----------10-10--109--9-9--9----|
D|-----------12-------------12-------------12-----------------------------|
A|-10h12----------10h12----------10h12------------------------------------|
E|------------------------------------------------------------------------|

E|---------------------------------------|
B|----------------------ah----ah-ah--ah--|
G|--7--7-7--75--5--7--7b----7---7b--7----|
D|---------------------------------------|
A|---------------------------------------|
E|---------------------------------------|

E|------------------------------------------------------------------------------|
B|--ah-ah-ah-ah--------ah-------------------------------------------------------|
G|--7b--7---7---7-p-5--7-------------------------------------------------10-----|
D|--------------------------------------------------------------------------12--|
A|---------------------------8-8--87--7-7--7/8--8-8--8/10--10-10-10h12----------|
E|------------------------------------------------------------------------------|

E|-------------------------------------|
B|----------------------------------3/-|
G|---------10-------------10-----------|
D|------------12--------------12-------|
A|--10h12----------10h12---------------|
E|-------------------------------------|

E|-12--13--15--12--13--15--12--13--15b---15b--12--13--15--12-|
B|-----------------------------------------------------------|
G|-----------------------------------------------------------|
D|-----------------------------------------------------------|
A|-----------------------------------------------------------|
E|-----------------------------------------------------------|

E|--------------------------------------------------------------|
B|--15-12-------------------------------------------------------|
G|----------14-15-12b----12b---12b--12p10-----------------------|
D|--------------------------------------------12--12--------0---|
A|------------------------------------------------------3b------|
E|--------------------------------------------------------------|

E|---------------------------------------------------------------------------------|
B|---------------------------------------------------------------------------------|
G|----------------10------------10-----10-----10--10--109--9-9--9/10--10-10--10/---|
D|---------10-----10-12/--------10-----10--12--------------------------------------|
A|--12-12-----12---------12-12-----12----------8---8---87--7-7--7/8----8--8---8/---|
E|---------------------------------------------------------------------------------|


E|--------------------------------------------------------------------------------|
B|--------------------------------------------------------------------------------|
G|--/12--12--12---------10-------------10------------10------10-10-109--9-9--9----|
D|-------------------------12-------------12------------12------------------------|
A|--/10--10--10--10h12----------10h12---------10h12-------------------------------|
E|--------------------------------------------------------------------------------|

E|------------------------|
B|------------------------|
G|-7--7-7--9--7--5h7--5---|
D|------------------------|
A|------------------------|
E|------------------------|

[Final]
E|------------------------------|
B|---------------------------| nh-|
G|-3-----5--5--5--5---7--7---7--|
D|------------------------------|
A|-1-----3--3--3--3---5--5------|
E|------------------------------|

E|-------------------------------------------------------------------------------|
B|---------------------------------------------------------------------------3~--|
G|----------7--------7--------7--------7--------9--------9--------9-----9----2~--|
D|--0-/---------------------------------------------------------------------0~---|
A|----------5--5--5--5--5--5--5--5--5--5--5--5--7--7--7--7--7--7--7-----7----0~--|
E|-------------------------------------------------------------------------------|

Piano outro- let ring
E|-5---5-------5-----5----5----5-------5-----5----5---5-------5-----5---|
B|-7---7---------7--------7----7---------7--------7---7---------7-------|
G|---7----7--7----7----7-----6----6--6-----6---6----5----5--5-----5---5-|
D|----------------------------------------------------------------------|
A|----------------------------------------------------------------------|
E|----------------------------------------------------------------------|

E|-7----7----7--|
B|-8----8----8--|
G|----7---7--7--|
D|--------------|
A|--------------|
E|--------------|

E|-5---5------5-----5----5----5-------5-----5----5---5-------5-----5----7-|
B|-7---7--------7--------7----7---------7--------7---7---------7--------8-|
G|---7---7--7-----7---7----6----6--6------6---6----5----5--5-----5---5--7-|
D|------------------------------------------------------------------------|
A|------------------------------------------------------------------------|
E|------------------------------------------------------------------------|

E|-----------------------------|
B|--15--------------3----------|
G|-----16--------------4-------|
D|--------17--------------5----|
A|-----------17--------------5-|
E|-----------------------------|

E|---| O )   off your eye brows or somethin\" -mick mars
B|--------/|
Otros videos de esta canción
    9.414 exhibiciones
    • Simplificar cifrado
      • ½ Tono
      • A
      • Bb
      • B
      • C
      • Db
      • D
      • Eb
      • E
      • F
      • F#
      • G
      • Ab
    • Agregar a la lista

    Afinação da cifra

    Afinador online

      Ops (: Contenido disponible solo en portugués.
      OK