Cifra Club

Aprenda

Banditismo Por Uma Questão De Classe

Nação Zumbi

Tablatura: Principal (guitarra)
tono: G
Intro: (P1 2x - P2 2x)
E|-----|---------------------------------------------------|
B|-----|---------------------------------------------------|
G|-----|--7-10-12--12-12--10-8-8/7---5-10-12--12-14-12-10--|
D|--9~-|--5-8--10--10-10--8--6-6/5---7-8--10--10-12-10-8---|
A|--9~-|---------------------------------------------------|
E|--7~-|---------------------------------------------------|

Verso 1:                     (Variação)
E|--7-x-7-7-x-7-x-7-7-7-x--|--7-x-7-7-x-7-x-7-6-7-x--|
B|--7-x-7-7-x-7-x-7-7-7-x--|--7-x-7-7-x-7-x-7-6-7-x--|
G|--7-x-7-7-x-7-x-7-7-7-x--|--7-x-7-7-x-7-x-7-6-7-x--|
D|-------------------------|-------------------------|
A|-------------------------|-------------------------|
E|-------------------------|-------------------------|

Verso 2:                       (Variação)
E|--7-x-7-7-x----------------|--7-x-7-7-x-7-x-7-6-7-x--|
B|--7-x-7-7-x-------7---7h9--|--7-x-7-7-x-7-x-7-6-7-x--|
G|--7-x-7-7-x-7h8h9---9------|--7-x-7-7-x-7-x-7-6-7-x--|
D|---------------------------|-------------------------|
A|---------------------------|-------------------------|
E|---------------------------|-------------------------|

Ponte:
E|-7-x-x-x-x-7-x-x-x-x--|
B|-7-x-x-x-x-7-x-x-x-x--|
G|-7-x-x-x-x-7-x-x-x-x--|
D|----------------------|
A|----------------------|
E|----------------------|

Intro  
Verso 1 
Verso 2 
Ponte  
Intro  
Verso 1 
Verso 2 
Intro  
Solo  
Composição de Chico Science
Colaboración y revision:
  • Ivan Costa
68 reproducciones
    • ½ Tono
    • A
    • Bb
    • B
    • C
    • Db
    • D
    • Eb
    • E
    • F
    • F#
    • G
    • Ab
  • Adicionar à lista

    0 comentarios

    Ver todos os comentários

    ¿Conseguiste tocar?

    0 Tocaram 1 Ainda não

    Grave um vídeo tocando Banditismo Por Uma Questão De Classe e nos envie!

    00:00 / 00:00
    outros vídeos desta música
    repetir qualidade Automático
    Outros vídeos desta música
    00:00 / 00:00
    Automático
    OK