Cifra Club

Um Milagre

Quatro Por Um

Tablatura: Principal
reproducciones 254
Tono: F
[Intro]  F9  C9  Dm7  Bb9

       F
E|--1-----1-----1---1---1---3-----3----------|
B|--1-1-1-1-1-1-1-1-1-1---1-1-1-1-1-1--------|
G|-------------------------------------------|
D|-------------------------------------------|
A|-------------------------------------------|
E|-------------------------------------------|
       C
E|--0-----0-----0---0---0---0----------------|
B|--1-1-1-1-1-1-1-1-1-1---1-1-0--------------|
G|-------------------------------------------|
D|-------------------------------------------|
A|-------------------------------------------|
E|-------------------------------------------|
       Dm
E|-1-----1-----1---1---1---3-----3-----------|
B|-3-3-3-3-3-3-3-3-3-3---3-3-3-3-3-3---------|
G|-------------------------------------------|
D|-------------------------------------------|
A|-------------------------------------------|
E|-------------------------------------------|
       Bb9
E|--0-----0-----0---0---0---0----------------|
B|--1-1-1-1-1-1-1-1-1-1---1-1----------------|
G|-------------------------------------------|
D|-------------------------------------------|
A|-------------------------------------------|
E|-------------------------------------------|

      F9             C9
Um milagre, eu precisava de um milagre
           Bb9
Quando os homens não puderam me atender
      F9             C9
Um milagre, eu precisava de um milagre
        Bb9
Quando tudo parecia escuridão
          Gm7           F9
E quanto mais eu precisei
       C9       Dm7
A tua mão me alcançou
       Bb9                         Bb9(6) Bb9
E o milagre vi você fazendo em mim
        Gm7            F9
Os meus olhos se abriram
       C9        Dm7
Pouca gente acreditou
       Eb7
Mas a tua poderosa mão
   Eb7
A tua poderosa mão

F9          C9           Dm7
 Eu vou contar pra todo mundo
       Bb9           F9
O que Deus fez por mim
           C9       Dm7         Bb9
Eu vou contar as maravilhas de Deus
F9           C9          Dm7      Bb9
 Deus restaurou a minha vida, me deu
     Eb7
Uma voz para minha geração

    F9             C9           Dm7
Um milagre, eu precisava de um milagre
           Bb9                          Bb9(6) Bb9
Quando os homens não puderam me atender
      F9             C9           Dm7
Um milagre, eu precisava de um milagre
        Bb9                   Bb9(6)
Quando tudo parecia escuridão
          Gm7           F9
E quanto mais eu precisei
       C9          Dm7
A tua mão me alcançou
      Bb9                            Bb9(6) Bb9
E o milagre eu vi você fazendo em mim
           Gm7        F9
Os meus olhos se abriram
       C9          Dm7
Pouca gente acreditou
       Eb7
Mas a tua poderosa mão, a tua poderosa mão

F9         C9           Dm7
Eu vou contar pra todo mundo
       Bb9          F9
O que Deus fez por mim
           C9         Dm7       Bb9
Eu vou contar as maravilhas de Deus
 F9         C9          Dm7
Deus restaurou a minha vida
            Eb7
Me deu uma voz

[Solo]  Dm7  C9  Eb7

E|-------------12-12-12-12-12---------10-10-10-10-10-10-|
B|---\10-10-10------------------8-8-8-------------------|
G|------------------------------------------------------|
D|------------------------------------------------------|
A|------------------------------------------------------|
E|------------------------------------------------------|

E|------------------------------------------------------|
B|--------------------11-11-11-11-11--------------------|
G|---10-10-10-10-10---10-10-10-10-10--------------------|
D|---8--8--8--8--8----8--8--8---8--8--------------------|
A|------------------------------------------------------|
E|------------------------------------------------------|
E|------------------------------------------------------|
B|--------------------11-11-11-11-11--------------------|
G|---10-10-10-10-10---10-10-10-10-10--------------------|
D|---8--8--8--8--8----8--8--8---8--8--------------------|
A|------------------------------------------------------|
E|------------------------------------------------------|

0 comentarios

    mostrar más comentarios
    00:00 / 00:00
    outros vídeos desta música
    repetirqualidadeautomática
    Outro vídeos desta música
      00:00 / 00:00
      automática
      OK