Cifra Club

Aprenda

Inosente Lang Ang Nagtataka

Rivermaya

Tab de bajo: Principal
TABBER-JD GARCIA
HOMETOWN-LIGAO CITY(GUILID)CORNER CONCEPCION DEL ROSARIO ST.
E-MAIL/FRIENDSTER*


Intro:

G|-------------------------------------------| 
D|-------------------------------------------| 3x
A|------77777--------------------------------|
E|--------------77777----5555555555----------|



Verse1:
G|-------------------------------------------|
D|-------------------------------------------|
A|--------55----55--55--55--55--55--55--55---|
E|-55--77--55---55--55---55-55---55-55---55--|
                                      Wala… wala… wala… wala…

G|-------------------------------------------|
D|-------------------------------------------|
A|--------------------5----------------------|
E|--------3----------------------------------|
          .           .   

Wla k namang nki2ta… pero ikw ay 2wang-2wa…

G|------------------------------------|
D|------------------------------------|
A|--5--5--5--5--5--5--5--5--5--5--5-5-|
E|------------------------------------|
    Prng kulilig s pndnig… (4x)


Pre-chorus:

G|-------------------------------------------|
D|-------------------------------------------| 3x
A|--------------------5----------------------|
E|--------3----------------------------------|
          .           .

Kaung ngta2ka, ngta2ka, ngta2ka…

chorus (repeat intro)

Verse2:

G|-------------------------------------------|
D|-------------------------------------------|
A|--------55----55--55--55--55--55--55--55---|
E|-55--77--55---55--55---55-55---55-55---55--|
                                      Wala… wala… wala… wala…

G|-------------------------------------------|
D|-------------------------------------------|
A|--------------------5----------------------|
E|--------3----------------------------------|
          .           .   
   
 Wla k namang nri2nig… hnd k nmn nki2nig

  
G|------------------------------------|
D|------------------------------------|
A|--5--5--5--5--5--5--5--5--5--5--5-5-|
E|------------------------------------|
    Prng kulilig s pndnig… (4x)


Pre-chorus:

G|-------------------------------------------|
D|-------------------------------------------| 3x
A|--------------------5----------------------|
E|--------3----------------------------------|
          .           .
 Kaung ngta2ka, ngta2ka, ngta2ka…




G|-------------------------------------------| 
D|-------------------------------------------| 3x
A|------77777--------------------------------|
E|--------------77777----5555555555----------|


Chorus:

G|-------------------------------------------| 
D|-------------------------------------------| 4x
A|------77777--------------------------------|
E|--------------77777----5555555555----------|
      Ha, Inosente lng ang ngta2ka…


(Repeat verse1, pero ung line na “prng kulilig s pndnig” 3 times lng)

(Repeat pre-chorus)

(Repeat chorus)


G|-------------------------------------------|
D|-------------------------------------------|
A|--------55----55--55--55--55--55--55--55---|
E|-55--77--55---55--55---55-55---55-55---55--|
                                      Wala… wala… wala… wala…

G|-----------------------------------------|
D|-----------------------------------------|
A|------------55--55--55--55--55--55--55---|
E|------------55--55--55--55--55--55--55---|
                                      Wala… wala… wala… wala…

End's with

G|----------------|
D|----------------|
A|----------------|
E|-----5----------|


5 reproducciones

0 comentarios

Ver todos os comentários

¿Conseguiste tocar?

0 Tocaram 0 Ainda não

Grave um vídeo tocando Inosente Lang Ang Nagtataka e nos envie!

00:00 / 00:00
outros vídeos desta música
repetir qualidade Automático
Outros vídeos desta música
00:00 / 00:00
Automático
OK