Cifra Club

Mia and Sebastian's Theme (From La la Land's Original Soundtrack)

Ryan Gosling

Cifrado: Principal (guitarra y guitarra eléctrica)
tono: E
E|----9-11-12-11-9--------9-11-12-11-9--------|
B|--9--------------10--10-------------9-------|
G|--------------------------------------------|
D|--------------------------------------------|
A|--------------------------------------------|
E|--------------------------------------------|

E|----9-11-12-12-11-9------14-12-11-12-11-9------|
B|--9-----------------10--------------------9----|
G|------------------------------------------|
D|------------------------------------------|
A|------------------------------------------|
E|------------------------------------------|

E|------15-15-14-15-14-12------11-15--------|
B|------------------------12-11--------------|
G|------------------------------------------|
D|------------------------------------------|
A|------------------------------------------|
E|------------------------------------------|

00:00 / 00:00
Otros videos de esta canción
Repetir
Otros videos de esta canción
Composición de Justin Hurwitz
Colaboración y revisión:
  • Davi Lima
220 vistas
    • ½ Tono
    • A
    • Bb
    • B
    • C
    • Db
    • D
    • Eb
    • E
    • F
    • F#
    • G
    • Ab
  • Agregar a la lista

    0 comentarios

    Ver todos los comentarios

    ¿Lograste tocar?

    0 Tocaron 1 Aún no

    ¡Graba un video tocando Mia and Sebastian's Theme (From La la Land's Original Soundtrack) y envíanoslo!

    00:00 / 00:00
    OK