Cifra Club

You're Still The One

Shania Twain

Cifrado: Principal (guitarra y guitarra eléctrica)
tono: D
E|--------------------------------------------------|
B|--4/6--4-----6--4---------------------------------|
G|----------3---------------------------------------|
D|---------------------6-4-6------------------------|
A|--------------------------------------------------|
E|--------------------------------------------------|

E|-----1--------------------------------------------|
B|--1------4/6--4-----6--4--------------------------|
G|-----------------3--------------------------------|
D|-------------------------6-4-6--------------------|
A|--------------------------------------------------|
E|5-------------------------------------------------|


D              D9    G               A
Looks like we made it Look how far we've come my baby
D                     D9     G                      A
We might a took the long way We knew we'd get there someday


D                G               A9
They said "I bet  they'll never make it"
         D          G        A9
But just look at us holding on
        D            G           A9
We're still together still going strong


                    D                        G
(You're Still The One) You're Still The One I run to
Em7                A9
The one that I belong to
D                      G        A9
You're Still The One I want for life
          G          D                      G
(You're Still The One) You're Still The One that I love
Em7              A9       D                     G         A9
The only one I dream of You're Still The One I kiss good night


 D                D9     G               A
Ain't nothin' better      We beat the odds together
D                  D9           G                A
I'm glad we didn't listen      Look at what we would be missin'


D                G               A9
They said "I bet  they'll never make it"
         D          G         A9
But just look at us holding on
        D            G           A9
We're still together still going strong

     
                  D                        G
(You're Still The One) You're Still The One I run to
Em7                A9
The one that I belong to
D                      G        A9
You're Still The One I want for life
          G          D                      G
(You're Still The One) You're Still The One that I love
Em7              A9       D                  G         A9
The only one I dream of You're Still The One I kiss good night     (2X)


D                D9
I'm so glad we made it
G                    A     D9
Look how far we've come my baby
Composición de Robert John / Shania Twain
Colaboración y revisión:
  • wesley atanasio
7.736 vistas
    • ½ Tono
    • A
    • Bb
    • B
    • C
    • Db
    • D
    • Eb
    • E
    • F
    • F#
    • G
    • Ab
  • Agregar a la lista

    0 comentarios

    Ver todos los comentarios

    ¿Lograste tocar?

    7 Tocaron 0 Aún no

    ¡Graba un video tocando You're Still The One y envíanoslo!

    00:00 / 00:00
    Outros vídeos desta música
    Repetir Calidad Automático
    Outros vídeos desta música
    00:00 / 00:00
    Automático
    OK