Enviar cifraEntrar

Don 't You Worry Child

Swedish House Mafia

Acordes: Principal
reproducciones 13.203
Tono: D
Primeira Parte:
             Bm7
There was a time
                                     G5(7M/9)
i used to look into my father's eyes
             Bm7
In a happy home
                             G5(7M/9)
i was a king i had a gold throne

                A7(13)
Those days are gone
         Bm7                 G5(7M/9)
Now the memories are on the wall
            A7(13)
I hear the songs
           Bm7               G5(7M/9)
From the places where i was born

1ª parte:

Bm7      G5(7M/9)
------5--------5-------------------------
------3--------3-------------------------
----2--------2---------------------------
--4--------4-----------------------------
2----------------------------------------
---------3-------------------------------


2ª parte:

A7(13)   Bm7       G5(7M/9)
------5--------5---------5--------5------
------2--------3---------3--------3------
----0--------2---------0--------0--------
--4--------4---------4--------4----------
0--------2-------------------------------
-----------------2-3--------3------------


Segunda Parte:
Bm7                                   G
    Up on the hill across the blue lake
                                   Bm7
Thats where i had my first heart break
                              G
I still remember how it all changed
My father said

1ª parte:

Bm7
-----------------------------------------
3--3-X-3--2--X-2--3--3-X-3--2--X-2-------
2--2-X-2--2--X-2--2--2-X-2--2--X-2-------
4--4-X-4--4--X-4--4--4-X-4--4--X-4-------
2----X-2--2--X----2----X-2--2--X---------
-----------------------------------------


2ª parte:

G
-----------------------------------------
0--0-X-0--0--X-0--0--0-X-0--0--X-0-------
0--0-X-0--2--X-2--0--0-X-0--2--X-2-------
0--0-X-0--4--X-4--0--0-X-0--4--X-4-------
-----X-------X---------X-------X---------
3------3--3-------3------3--3------------


Refrão:
A4            Bm7(11)                 G5(6/9)
   Don't you worry, don't you worry child
                             A4
See heaven's got a plan for you
           Bm7(11)                G5(6/9)
Don't you worry, don't you worry now

A4            Bm7(11)                G5(6/9)
   Don't you worry, don't you worry now
                             A4
See heaven's got a plan for you
           Bm7(11)                G5(6/9)
Don't you worry, don't you worry now

Primeira Parte com variação na letra:
             Bm7
There was a time
                             G
I met a girl of a different kind
              Bm7
We ruled the world,
                                    G
Thought i'll never lose her out of sight
            A
We were so young
    Bm7                  G
I think of her now and then
                A
Still hear the song
   Bm7              G
Reminding me of a friend

1ª parte

Bm7
-----------------------------------------
3--3-X-3--2--X-2--3--3-X-3--2--X-2-------
2--2-X-2--2--X-2--2--2-X-2--2--X-2-------
4--4-X-4--4--X-4--4--4-X-4--4--X-4-------
2----X-2--2--X----2----X-2--2--X---------
-----------------------------------------


2ª parte

G
-----------------------------------------
0--0-X-0--0--X-0--0--0-X-0--0--X-0-------
0--0-X-0--2--X-2--0--0-X-0--2--X-2-------
0--0-X-0--4--X-4--0--0-X-0--4--X-4-------
-----X-------X---------X-------X---------
3------3--3-------3------3--3------------


3ª parte

Bm7
-----------------------------------------
3--3-X-3--2--X-2--3--3-X-3--2--X-2-------
2--2-X-2--2--X-2--2--2-X-2--2--X-2-------
4--4-X-4--4--X-4--4--4-X-4--4--X-4-------
2----X-2--2--X----2----X-2--2--X---------
-----------------------------------------


4ª parte

G
-----------------------------------------
0--0-X-0--0--X-0--0--0-X-0--0--X-0-------
0--0-X-0--2--X-2--0--0-X-0--2--X-2-------
0--0-X-0--4--X-4--0--0-X-0--4--X-4-------
-----X-------X---------X-------X---------
3------3--3-------3------3--3------------


5ª parte

A                 Bm7
-----------------------------------------
2--2-X-2--0--X-2--3--3-X-3-----X---------
2--2-X-2--2--X-2--2--2-X-2--2--X---------
2--2-X-2--2--X-2--4--4-X-4-----X-4-------
0----X-0--0--X----2----X-2-----X---------
----------------------------2------------


6ª parte

G
-----------------------------------------
0--0-X-0-----X----0--0-X-0-----X-3-------
0--0-X-0--2--X----0--0-X-0--2--X-2-------
0--0-X-0-----X-4--0--0-X-0-----X---------
-----X-------X---------X-------X---------
3------3--2-------3------3--2------------


7ª parte

A                 Bm7
-----------------------------------------
2--2-X-2--0--X-2--3--3-X-3-----X---------
2--2-X-2--2--X-2--2--2-X-2--2--X---------
2--2-X-2--2--X-2--4--4-X-4-----X-4-------
0----X-0--0--X----2----X-2-----X---------
----------------------------2------------


8ª parte

G
-----------------------------------------
0--0-X-0-----X----0--0-X-0-----X---------
0--0-X-0--2--X----0--0-X-0--2--X---------
0--0-X-0-----X-4--0--0-X-0-----X-4-------
-----X-------X---------X-------X---------
3------3--2-------3------3--2------------



Segunda Parte:
Bm7                                   G
    Up on the hill across the blue lake
                                   Bm7
Thats where i had my first heart break
                              Bm7   G
I still remember how it all changed
My father said

1ª parte

Bm7
-----------------------------------------
3--3-X-3--2--X-2--3--3-X-3--2--X-2-------
2--2-X-2--2--X-2--2--2-X-2--2--X-2-------
4--4-X-4--4--X-4--4--4-X-4--4--X-4-------
2----X-2--2--X----2----X-2--2--X---------
-----------------------------------------


2ª parte

G
-----------------------------------------
0--0-X-0--0--X-0--0--0-X-0--0--X-0-------
0--0-X-0--2--X-2--0--0-X-0--2--X-2-------
0--0-X-0--4--X-4--0--0-X-0--4--X-4-------
-----X-------X---------X-------X---------
3------3--3-------3------3--3------------


3ª parte

Bm7
-----------------------------------------
3--3-X-3--2--X-2--3--3-X-3--2--X-2-------
2--2-X-2--2--X-2--2--2-X-2--2--X-2-------
4--4-X-4--4--X-4--4--4-X-4--4--X-4-------
2----X-2--2--X----2----X-2--2--X---------
-----------------------------------------


4ª parte

G
-----------------------------------------
0--0-X-0--0--X-0--0--0-X-0---------------
0--0-X-0--2--X-2--0--0-X-0---------------
0--0-X-0--4--X-4--0--0-X-0---------------
-----X-------X---------X-----------------
3------3--3-------3------3---------------

Refrão:
A4         Bm7(11)                 G5(6/9)
Don't you worry, don't you worry child
                             A4
See heaven's got a plan for you
           Bm7(11)                G5(6/9)
Don't you worry, don't you worry now

A4         Bm7(11)                G5(6/9)
Don't you worry, don't you worry now
                             A4
See heaven's got a plan for you
           Bm7(11)                G5(6/9)
Don't you worry, don't you worry now
  • 1
  • 2
  • 3
  • 4
  • 5
  • 6
  • 7
  • 8
  • 9
  • 10
  • 11
  • 12

    0 comentarios

      mostrar mas comentarios

      ¿Conseguiste tocar?

      31tocaron3aún no

      ¡Grave un vídeo tocando Don 't You Worry Child y envie para nosotros!

      00:00 / 00:00
      outros vídeos desta música
      repetirqualidadeautomática
      • automática
      Outro vídeos desta música
        00:00 / 00:00
        automática
        • automática
        Acordes para:guitarra
        dificuldadreproduccionescontribuciones
        1 versión de Guitar Proformatodownloadscontribución
        cerrarplay/pause subir/bajar velocidad
          acordes
          cerrar
          OK
          Feedback