Cifra Club

07 - Dedicação Cristã

Testemunhas de Jeová

Cifrado: Principal (guitarra y guitarra eléctrica)
tono: C

E|----------------------------------|
B|----------------------------------|
G|-0-------------0-----2--2-0-------|
D|---2--3-2-0--2--------------0-2---|
A|-----------3-------3--------------|
E|----------------------------------|

E|--------------------------------|
B|--------------------------------|
G|--------------------------------|
D|---3--3-2---0-----0-2-0-0-2-3---|
A|-3--------2---3-3---------------|
E|--------------------------------|

E|----------------------------------|
B|----------------------------------|
G|-0-------------0-----2--2-4---5---|
D|---2--3-2-0--2--------------2-----|
A|-----------3-------3--------------|
E|----------------------------------|

E|------------------------------------|
B|------------------------------------|
G|---2-4-5-0--------------------------|
D|-----------2-2--0---0-2-2-3-2-0-----|
A|-3---------------3--------------3---|
E|------------------------------------|
00:00 / 00:00
Otros videos de esta canción
Repetir
Otros videos de esta canción
Compositor no encontrado.
Colaboración y revisión:
  • Marlo Augusto
347 vistas
    • ½ Tono
    • A
    • Bb
    • B
    • C
    • Db
    • D
    • Eb
    • E
    • F
    • F#
    • G
    • Ab
  • Agregar a la lista

    0 comentarios

    Ver todos los comentarios

    ¿Lograste tocar?

    13 Tocaron 1 Aún no

    ¡Graba un video tocando 07 - Dedicação Cristã y envíanoslo!

    00:00 / 00:00
    OK