Cifra Club

A Vida de Um Pioneiro

Testemunhas de Jeová

Cifrado: Principal (guitarra y guitarra eléctrica)
tono: G
E|---------------------------------------------------------------|
B|-----0--1--------2----------------------------0----------------|
G|-----------------0--------------0-------0----------------------|
D|-----------------0------0-------0------------------------------|
A|---------------------2----------2------------------------------|
E|-----------------3---------------------------------------------|

E|------------0--------------------------------------------------|
B|---------1----------0---1-------3------------------0-----------|
G|--2-----------------------------0------------0-----0-----------|
D|-----2--------------------------0-------0----0-----------------|
A|--0------------------------------------------------------------|
E|--------------------------------3------------------------------|

E|---------------------------------------------------------------|
B|--1-----------0---1---------3--------------------------0-------|
G|--2-------------------------0-------------0-------0------------|
D|--0-------------------------0---------0---0--------------------|
A|---------------------------------2--------2--------------------|
E|--3-------------------------3----------------------------------|

E|-------------0-------------------------------------------------|
B|---------1----------0---1------3-----------------------0-------|
G|--2----------------------------0-----------0-----------0-------|
D|-----2-------------------------0------0----0-------------------|
A|--0--------------------------------2----------------2----------|
E|-------------------------------3----------------3--------------|

E|--------------0-------------------------------------0----2-----|
B|----------1---------0--1----3------0---1---3-------------------|
G|---2-------------------------------0---0---0-------------------|
D|------2------------------------0----------------0--------------|
A|---0-----------------------------------------------------------|
E|----------------------------3----------------------------------|

E|-3---------------3--2-----------0------------------3---3---7---|
B|-0------------------3--3--------1----------3---3-----------0---|
G|-0--0-----0---------4-----------0------0-------------------0---|
D|-------2-----0------------------2--2-----------------------0---|
A|--------------------------------3--------------2---------------|
E|-0-----------------------------------------2-------------------|

E|-5----0--0--2--3----3-----2-----5---3------7--------5--3--2----|
B|-3----2-------------1-----1--3------0------0--------0----------|
G|-0----0-------------0--0--------2---0------0--------0----------|
D|-2----2--------------------------------------------------------|
A|-0----0-------------0-----0-----2---2------3----4--------------|
E|-------------------------------------2-------------------------|

E|---3-----------------------------------------------------------|
B|---0----3----1----1--------------------------------------------|
G|---0------------------2----0-------0---------------------------|
D|---0----0--------------------------0---------------------------|
A|-----------------------------------2---------------------------|
E|-----------------------------------3---------------------------|

00:00 / 00:00
Otros videos de esta canción
Repetir
Otros videos de esta canción
Composición de Tract Society Of PA / Watch Tower Bible
Colaboración y revisión:
  • Fábio Campos
154 vistas
    • ½ Tono
    • A
    • Bb
    • B
    • C
    • Db
    • D
    • Eb
    • E
    • F
    • F#
    • G
    • Ab
  • Agregar a la lista

    0 comentarios

    Ver todos los comentarios

    ¿Lograste tocar?

    1 Tocaron 4 Aún no

    ¡Graba un video tocando A Vida de Um Pioneiro y envíanoslo!

    00:00 / 00:00
    OK