Cifra Club

Dying In New Brunswick

Thursday

Cifrado: Principal (guitarra y guitarra eléctrica)
Selo Cifra Club: esta cifra foi revisada para atender aos critérios oficiais da nossa Equipe de Qualidade.
tono: E
DISC: Waiting

tabbed by M*

okay, this song has a quirky bassline and two clever guitars....i can give the basic
is imply a chord progression and have both guitars and the bass just do interesting
stuff around it.  it sounds like there's a lot going on in this song and i'm giving
you what it is based on.

Drop D

intro/verse: Riff 1:
    D5
e----------------------|
B---------7-------7----|
G------6--7-------7----|
D------7--7-------7----|
A------5----------5----|
D---0--0-------0--0----|

VERSE:
D5
 you told me on your birthday all the things that
B5             A5      D5
this place had done to you
D5-->
 and in the streets you walk, you hide your face cause
B5           A5         G5
they don't believe it's true
     B5             A5          G5
they say it doesn't happen that often
         B5        A5
but it's happening right now

        CHORUS:

         D5
    --------------------------|
    --------------------------|
    --7--7-7/9\7--/14---------|
riff 2    --------------------|
    --5--5-5/7\5--/12---------|
    --------------------------|
                   i'm writing you this
        letter to      let you know

        B5  A5      G5
        i'm not all right

    --------------------------------|
    --------------------------------|
riff 3     -7-7/9-9-9/11-11-11/12---|
    --------------------------------|
    -5-5/7-7-7/9--9--9//10----------|
    --------------------------------|

            B5                A5         G5     (riff 3)
        the streets are still paved with hate
           B5              A5      G5
        so cry yourself to sleep tonight, and say


    --x-------x--------x----------x------------------|
    --x-------x--------x----------x------------------|
riff 4    --x-7-7/9-x-9-9/11-x-11-11/12-x-12\11--7---|
    --x-------x--------x----------x------------------|
    --x-5-5/7-x-7-7/9--x-9--9//10-x-10\9---5---------|
    --x-0-----x-0-0-0--x-0--0--0--x-0--0---0---------|
                                        "no     there
        B5                 A5
        aren't enough love songs in the sky"

VERSE:
D5
 You're counting down the days till you can say
B5       A5        D5
"bye bye city, bye-bye"
D5
 You're walking down on Union, you see the roads and
B5             A5      G5
know they're a part of you.
     B5            A5          G5
They say it doesnt happen that often
         B5        A5
But it's happening right now.

        CHORUS:
        I'm writing you a second time to let you know
        Nothing here has changed
        The streets are still paved with hate
        So cry yourself to sleep tonight, and say
        (riff 4)

BRIDGE:
---------------5~---5---6p5------------------------|
-------------6----6---6-----6----------------------|
---------------------------------------------------|
-0-0-0-0-0~-------------------8-8-8-8--10-10-10-10-|   repeat a few times...
-0-0-0-0-0~-------------------8-8-8-8--10-10-10-10-|
-0-0-0-0-0~-------------------8-8-8-8--10-10-10-10-|


VERSE 3:
 D5 (minor)      Bb5
---5------5--------5------5---|
----6------6--------6------6--|
-7-------7--------------7-----|
-0~--------------8~-----------|
-0~--------------8~-----------|
-0~--------------8~-----------|

Will you look back on this night
As the day that ruined your life.
Will you look back on these city streets and say,
"Oh, God, where are you?"

In these city streets I hide my face.
I turn away when you look at me
And every night when I try and sleep.
I feel your hands all over my body.

OUTRO: pound away on Dm
Dm-->
you scratched away the street signs and you shot out all the stop lights
you smashed away the buildings, what would you have left?


that's it, i think.  for corrections, email me at *
if i recognize any corrections, i'll post them at *
i love this song.  enjoy.  disclaimer: it wasn't my fault.
disclaimer: though i also wanted more than friendship,
more than anything i just wanted friendship.
email me with comments.
peace, love, rock and roll,
*
Otros videos de esta canción
    6 exhibiciones
      • ½ Tono
      • A
      • Bb
      • B
      • C
      • Db
      • D
      • Eb
      • E
      • F
      • F#
      • G
      • Ab
    • Agregar a la lista

    Afinação da cifra

    Afinador online

      Ops (: Contenido disponible solo en portugués.
      OK