Cifra Club

Minha Vez (part. MC Livinho)

Ton Carfi

Tablatura: Principal (guitarra)
reproducciones 319
Tono: B (con acordes en la forma de A) Capo en 2ª casa
[Intro] G  Em7  D6(11)  C9

           G                  Em7
e|----------------------------------------------------|
B|---------0-------0----------------0-------0---------|
G|-0h2p0h2-----0-------0---0h2p0h2------0-------0-----|
D|-----------0---0---0---0------------0---0---0---0---|
A|----------------------------------------------------|
E|---------3------------------------0-----------------|

           D6(11)                C9
e|-----------------------------------------------|
B|---------0-------0-------------------------3---|
G|-0h2p0h2-----0-------0---2h4p2-0-------0-------|
D|-----------4---4---4---4---------0---0---0-----|
A|---------5-------------------------3-----------|
E|-----------------------------------------------|

[Primeira Parte]

              G
Bem na minha vez
                                Em7(9)
De viver aquilo tudo que eu sonhei
                                  D11
Bem na hora que eu estava prestes a chegar
                G/B       C9     C7M
Na linha de chegada para conquistar

              G
Bem na minha vez
                                   Em7(9)
Só Deus sabe quantas vezes eu busquei
                                     D11
Mas vi outra pessoa conquistar o que eu pedi
                 G/B          C9      
Aquilo que eu achava que era para mim

e|------------------------------------------|
B|-7/8--7-3---------------------------------|
G|------------------------------------------|
D|-7/9--7-4---------------------------------|
A|------------------------------------------|
E|------------------------------------------|

[Segunda Parte]

C7M        D6(11)   Em
    Perguntei para Deus
                       G
Por que o senhor não quer me ouvir
C7M          D6(11)     Em
    Me frustrei, eu chorei
               G/B
Pensei até em desistir

[Refrão]

               C9
Mas quando eu calo, Ele me fala pra eu prosseguir
        Am7
Se desanimo, Ele me diz: Filho estou aqui!
        Em7
Vai chegar a sua vez

Não te esqueci
 D6(11)
Pode confiar em mim

         C9
Aquilo que Eu tenho preparado pra você
      Am7
A sua imaginação não consegue prever
Em7
Ore outra vez

Busque outra vez
 D6(11)
Tente só mais uma vez

( C  Em )

 D11               G/B
Tente só mais uma vez

( C  Em  G  D11 )

              G
Bem na minha vez
                                   Em7(9)
Só Deus sabe quantas vezes eu busquei
                                     D11
Mas vi outra pessoa conquistar o que eu pedi
                 G/B          C9     
Aquilo que eu achava que era para mim

e|------------------------------------------|
B|-7/8--7-3---------------------------------|
G|------------------------------------------|
D|-7/9--7-4---------------------------------|
A|------------------------------------------|
E|------------------------------------------|

[Segunda Parte]

C7M        D6(11)   Em
    Perguntei para Deus
                       G
Por que o senhor não quer me ouvir
C7M          D6(11)     Em
    Me frustrei, eu chorei
               G/B
Pensei até em desistir

[Refrão]

               C9
Mas quando eu calo, Ele me fala pra eu prosseguir
        Am7
Se desanimo, Ele me diz: Filho estou aqui!
        Em7
Vai chegar a sua vez

Não te esqueci
 D6(11)
Pode confiar em mim

         C9
Aquilo que Eu tenho preparado pra você
      Am7
A sua imaginação não consegue prever
Em7
Ore outra vez

Busque outra vez
 D6(11)
Tente só mais uma vez

[Terceira Parte]

          Em7
Não falhará
           D6(11)
Deus cuidará
                 G/B          C7M
Semeie os bons frutos e colherá
   Am7             Em7
Vitória, glórias, vindas do céu
     Am7(9)           C7M  
Não manche as vestes, Ele é fiel

( C7M )

[Refrão]

               C7M
Mas quando eu calo, Ele me fala pra eu prosseguir
        Am7
Se desanimo, Ele me diz: Filho estou aqui!
        Em7
Vai chegar a sua vez

Não te esqueci
 D6(11)
Pode confiar em mim

         C7M
Aquilo que Eu tenho preparado pra você
      Am7
A sua imaginação não consegue entender
Em7
Ore outra vez

Busque outra vez
 D6(11)                                ( C  Em  D11 )
Tente só mais uma vez (tente só mais uma vez)
                   C7M  Em  D11
Tente só mais uma vez

[Final] G
Acordes para:
    Colaboración y revision:

    0 comentarios

    mostrar más comentarios

    ¿Conseguiste tocar?

    10 tocaron 17 aún no

    ¡Graba un vídeo tocando Minha Vez (part. MC Livinho) y envianoslo!

    00:00 / 00:00
    outros vídeos desta música
    repetir qualidade Automático
    Outro vídeos desta música
    00:00 / 00:00
    Automático
    OK