Cifra Club

Allein Vor Deinem Haus

Die Toten Hosen

Cifrado: Principal (guitarra y guitarra eléctrica)
Selo Cifra Club: esta cifra foi revisada para atender aos critérios oficiais da nossa Equipe de Qualidade.
tono: D
Intro 

G|-----------------------------------------------------------| 
D|-----------------------------------------------------------| 
A|-------5-3-3-3-3-1-1-1-3-3-3-3-----------------------------| 
E|-1-1-1-----------------------------------------------------| 

Alle Versen 

G|------------------------------------------------------------| 4x 
D|------------------------------------------------------------| 
A|---------3-3-3-3-1-1-1-1------------------------------------| 
E|-1-1-1-1----------------------------------------------------| 

Refrain 

G|------------------------------------------------------------| 
D|------------------------------------------------------------| 
A|-5-5-5-3-3-3-5-5-5-5-3--------------------------------------| 2x 
E|------------------------------------------------------------| 

1:16 

G|------------------------------------------------------------| 
D|------------------------------------------------------------| 
A|---------5-3-3-3-3-1-1-1-1----------------------------------| 
E|-1-1-1-1-------------------1--------------------------------|
Otros videos de esta canción
    16 exhibiciones
      • ½ Tono
      • A
      • Bb
      • B
      • C
      • Db
      • D
      • Eb
      • E
      • F
      • F#
      • G
      • Ab
    • Agregar a la lista

    Afinação da cifra

    Afinador online

      Ops (: Contenido disponible solo en portugués.
      OK