Cifra Club

End Of The Line Intro

Traveling Wilburys

Cifrado: Principal (guitarra y guitarra eléctrica)
tono: D
       G         D      G          A  D
E |----7-7-7-7-7/2-2--2/7-7-7-7-7--9--10---------------------|
B |----8-8-8-8-8/3-3--3/8-8-8-8-8--10-10---------------------|
G |----7-7-7-7-7/2-2- 2/7-7-7-7-7--9--11---------------------|
D |-0--------------------------------------------------------|
A |----------------------------------------------------------|
E |----------------------------------------------------------|

       G         A   G A   D
E |----7-7-7-7-7/9---7-9---14----------------------------------|
B |----8-8-8-8-8/10--8-10--15----------------------------------|
G |----7-7-7-7-7/9---7-9---14----------------------------------|
D |-0----------------------------------------------------------|
A |------------------------------------------------------------|
E |------------------------------------------------------------|

00:00 / 00:00
Otros videos de esta canción
Repetir
Otros videos de esta canción
Compositor no encontrado.
Colaboración y revisión:
  • Caio Gobbi
389 vistas
    • ½ Tono
    • A
    • Bb
    • B
    • C
    • Db
    • D
    • Eb
    • E
    • F
    • F#
    • G
    • Ab
  • Agregar a la lista

    0 comentarios

    Ver todos los comentarios

    ¿Lograste tocar?

    0 Tocaron 0 Aún no

    ¡Graba un video tocando End Of The Line Intro y envíanoslo!

    00:00 / 00:00
    OK