Cifra Club

Piel Canela Intro

Trio Los Panchos

Tablatura: Principal (guitarra)
Tom: D
Los Panchos
Piel Canela

tabbed by *

e|---------------------------------------------------------------------|
B|--------------8----------------8---------------7----------------7----|
G|----------------6----------------6---------------6----------------6--|
D|--7-7-7-7-7-9------7-7-7-7-7-9-----7-7-7-7-7-9-----7-7-7-7-7-9-------|
A|---------------------------------------------------------------------|
E|---------------------------------------------------------------------|

e|------------------------------------------5-7-9-10--10---------------|
B|--------------8-------------10-8-7-5---------------------------------|
G|----------------6----------------------------------------------------|
D|--7-7-7-7-7-9------7-7-7-7-------------------------------------------|
A|---------------------------------------------------------------------|
E|---------------------------------------------------------------------|

correciones/corrections contact me

         Em          A7         D       Bm
Que se quede el infinito sin estrellas
        Em            A7             D
o que pierda el ancho mar su inmensidad
          F#                       Bm
pero el negro de tus ojos que no muera
       Em           E7             A
y el canela de tu piel se quede igual

       Em           A7         D    Bm
Si perdiera el arcoiris su belleza
        Em          A7          D
o las flores su perfúme y su color
      F#                     Bm
no sería tan inmensa mi tristeza
        Em          E7            A
como aquella de quedarme sin tu amor

              Em
Me importas...tú
  A7    Em
y tú, y tú
    A7       D
y solamente tú
  Bm    D
y tú, y tú
      Bm B7  Em
Me importas tú
  A7    Em
y tú, y tú
  A7            D
y nadie más que tú


      B7            Em
Ojos negros piel canela
        E7             A
que me llegan a desesperar


              Em
Me importas...tú
  A7    Em
y tú, y tú
    A7       D
y solamente tú
  Bm    D
y tú, y tú
      Bm B7  Em
Me importas tú
  A7    Em
y tú, y tú
  A7            D
y nadie más que tú


Requinto:

           Em     A7             Em     A7
|---------------------|-----------------------|
|---------------------|-----------------------|
|--------------12-----|--------------12-------|
|--7-7-7-8-9------11--|--7-7-7-8-9------11----|
|---------------------|-----------------------|
|---------------------|-----------------------|

           D     Bm              D      Bm
|---------------------|-----------------------|
|---------------------|-----------------------|
|--------------11-----|--------------11-------|
|--7-7-7-8-9------9---|--7-7-7-8-9------9-----|
|---------------------|-----------------------|
|---------------------|-----------------------|

           Em     A7              Em          A7            D
|---------------------|----------------------------------------|
|---------------------|-----------10-8-------------------------|
|--------------12-----|----------------11-9----------------6-7-|
|--7-7-7-8-9------11--|--7-7-7-7-------------7-----7-7--9------|
|---------------------|----------------------------------------|
|---------------------|----------------------------------------|



      B7            Em
Ojos negros piel canela
        E7             A
que me llegan a desesperar


              Em
Me importas...tú
  A7    Em
y tú, y tú
    A7       D
y solamente tú
  Bm    D
y tú, y tú
      Bm B7  Em
Me importas tú
  A7    Em
y tú, y tú
  A7            D
y nadie más que tú


Outro ( Requinto base y en octava)


Requinto Base:

           Em     A7             Em     A7
|---------------------|-----------------------|
|---------------------|-----------------------|
|--------------12-----|--------------12-------|
|--7-7-7-8-9------11--|--7-7-7-8-9------11----|
|---------------------|-----------------------|
|---------------------|-----------------------|

           D     Bm              D      Bm
|---------------------|-----------------------|
|---------------------|-----------------------|
|--------------11-----|--------------11-------|
|--7-7-7-8-9------9---|--7-7-7-8-9------9-----|
|---------------------|-----------------------|
|---------------------|-----------------------|

           Em     A7              Em          A7            D
|---------------------|----------------------------------------|
|---------------------|-----------10-8-------------------------|
|--------------12-----|----------------11-9----------------6-7-|
|--7-7-7-8-9------11--|--7-7-7-7-------------7-----7-7--9------|
|---------------------|----------------------------------------|
|---------------------|----------------------------------------|


Requinto en octava:

               Em     A7                Em     A7
|------------------15----|------------------15----|
|--10-10-10-11-12-----14-|--10-10-10-11-12-----14-|
|------------------------|------------------------|
|------------------------|------------------------|
|------------------------|------------------------|
|------------------------|------------------------|

                D     Bm                D      Bm
|------------------14----|------------------14----|
|--10-10-10-11-12-----12-|--10-10-10-11-12-----12-|
|------------------------|------------------------|
|------------------------|------------------------|
|------------------------|------------------------|
|------------------------|------------------------|

              Em     A7
|-----------------15------|
|-10-10-10-11-12-----14---|
|-------------------------|
|-------------------------|
|-------------------------|
|-------------------------|

               Em            A7                D
|---------------17-15--14---------------------------|
|-------------------------17-----------------14-15--|
|-14-14-14-14-----------------14---14-14--16--------|
|---------------------------------------------------|
|---------------------------------------------------|
|---------------------------------------------------|
reproducciones 6.270
Acordes para:
    Colaboración y revision:
    • jose

    0 comentarios

    mostrar más comentarios

    ¿Conseguiste tocar?

    1 tocaron 0 aún no

    ¡Graba un vídeo tocando Piel Canela Intro y envianoslo!

    00:00 / 00:00
    outros vídeos desta música
    repetir qualidade Automático
    Outros vídeos desta música
    00:00 / 00:00
    Automático
    OK