Cifra Club

Det Eneste Hun Ville Var At Danse

Tv-2

Cifrado: Principal (guitarra y guitarra eléctrica)
Selo Cifra Club: esta cifra foi revisada para atender aos critérios oficiais da nossa Equipe de Qualidade.
tono: Dm
E|-------------------------------------|
   / Det eneste hun ville var at danse  /
  / TV-2                               /
 / Nærmest Lykkelig (1990)            /
/____________________________________/

   toneart: F dur
   taktart: 4/4
   tempo:   Q=224 bpm

E|E|E|---------------------------------------------------------------------|||



[FORSPIL + GUITAR MELLEMSPIL 1]
  (trommer)
  | N.C.   | -      | -      | -      |


  | Dm     | %      | F      | %      |

  | Dm     | %      | Bb     | %      |

  | Dm     | %      | F      | %      |

  | Dm     | %      | Bb     | %      |


  (trommer)
   N.C.
E|--------|--------|--------|--------|
B|--------|--------|--------|--------|
G|--------|--------|--------|--------|
D|--------|--------|--------|--------|
A|--------|--------|--------|----3-5-|
E|--------|--------|--------|--------|


   Dm       %        F        %
E|--------|--------|--------|--------|
B|--------|--------|----1~--|--------|
G|--------|---0----| 0h2-----|--------|
D|3~------|------3-|--------|--------|
A|--------|--------|--------|----3-5-|
E|--------|--------|--------|--------|

   Dm       %        Bb       %
E|--------|--------|--------|--------|
B|--------|--------|--------|--------|
G|--------|---0--2-|--------|--------|
D|3~------|--------| 3~------|--------|
A|--------|--------|--------|----3-5-|
E|--------|--------|--------|--------|

   Dm       %        F        %
E|--------|--------|--------|--------|
B|--------|--------|----1~--|--------|
G|--------|---0----| 0h2-----|--------|
D|3~------|------3-|--------|--------|
A|--------|--------|--------|----3-5-|
E|--------|--------|--------|--------|

   Dm       %        Bb       %
E|--------|--------|--------|--------|
B|--------|--------|--------|--------|
G|--------|---0--2-|--------|--------|
D|3~------|--------| 3~------|--------|
A|--------|--------|--------|--------|
E|--------|--------|--------|--------|



[VERS 1]
  | F      | %      | Am     | %      |

  | Cm     | %      | Bb     | %      |

  | Bbm    | %      | F      | %      |

  | G13    | %      | C7     | %      |

       F               %      Am
  Alt, hvad hun ville, var at danse
  Cm            %             Bb
  natten ung og smuk og usand-synlig.
  Bbm        %         F
  Gemt i sin elskedes arme,
   G13         %             C7   %
  tæt på, lige ved og næsten fri.



[VERS 2]
  Men fyren, som var hendes kærlighed,
  sad midt i en alvorlig diskussion
  om ting af væsentlig og stor betydning,
  som inderst inde ikke angår nog'n.



[OMKVÆD 1]
  | Bb     | Csus4  | F      | Edim7  |

  | Bb     | Am     | Dm     | %      |

  | Bb     | Csus4  | F      | Edim7  |

  | Bb     | Am     | Gm     | C      |

      Bb          Csus4         F             Edim7
  Det eneste, hun ville, var at danse bar' en enkelt nat,
  Bb             Am         Dm  %
  drømme uden at vågne op igen.
     Bb             Csus4             F              Edim7
  Og nogen syn's må-ske, det var lidt synd, og andre skreg af grin.
  Bb               Am           Gm    C
  Langt de fleste lod som ingen-ting.



[MELLEMSPIL]
  | F      | %      | %      | %      |



[VERS 3]
  Og festen var en lang og ensom tale,
  hvor ingen hørte, hvad hinanden sagd'.
  Alt, hvad hun ville, var at danse
  og bare slippe ud derfra.



[OMKVÆD 2]
  Det eneste, hun ville, var at leve bar' en enkelt nat,
  drømme uden at vågne op igen.
  Og nogen syn's måske, det var lidt synd, og andre skreg af grin.
  Langt de fleste lod som ingenting.



[GUITAR MELLEMSPIL 2]



[VERS 4]
  Så dansede hun pluds'lig dér på gulvet,
  lidt usikker, alene og forladt.
  Og uden at nog'n rigtig så det,
  forsvandt hun i den iskolde nat.



[VERS 5]
  Alt, hvad hun ville, var at danse,
  glemme alting, mens det stadig sker,
  flygte i sin elskedes arme,
  hviske ord, som ingen husker mer'.



[OMKVÆD 3]
  Det eneste, hun ville, var at leve bar' en enkelt gang,
  drømme uden at vågne op igen.
  Og nogen syn's måske, det var lidt synd, og andre skreg af grin.
  Langt de fleste lod som ingenting.


  (Indskyd 2 takters ekstra pause.)


[GUITAR MELLEMSPIL 3]
(Stop og hvil på den sidste Bb.)



E|E|E|---------------------------------------------------------------------|||
 15th /January /19
E|E|E|---------------------------------------------------------------------|||
Otros videos de esta canción
    2 exhibiciones
      • ½ Tono
      • Am
      • Bbm
      • Bm
      • Cm
      • C#m
      • Dm
      • Ebm
      • Em
      • Fm
      • F#m
      • Gm
      • G#m
    • Agregar a la lista

    Afinação da cifra

    Afinador online

      Ops (: Contenido disponible solo en portugués.
      OK