Cifra Club

Na Cama Que Eu Paguei (part. Zé Neto e Cristiano)

Wesley Safadão

Cifrado: Principal (guitarra y guitarra eléctrica)
tono: Ebm (con acordes en la forma de Dm) Capotraste en 1ª casa
[Intro] Dm  Bb9  C  Dm  Bb9  C  Dm

E|------------------------------------------|
B|-/6-6--5--6-5-----5h6-6-6-6-6-5-----------|
G|-/7-7--5--7-5-7---5h7-7-7-7-7-5-5-5-5-5---|
D|--------------8-----------------7-7-7-7-7-|
A|----------------------------------------8-|
E|------------------------------------------|

E|------------------------------------------|
B|-5h6---5-3/5-3----------------------------|
G|-5h7--------------------------------------|
D|-------5-3/5-3----------------------------|
A|------------------------------------------|
E|------------------------------------------|

E|-/5-5--3--5-3-----/5-5-5-5-5-3------------|
B|-/6-6--5--6-5-6---/6-6-6-6-6-5-5-5-5-5----|
G|--------------7----------------5-5-5-5-5--|
D|---------------------------------------7--|
A|------------------------------------------|
E|------------------------------------------|

E|-/5---3-1/3-1-----------------------------|
B|-/6---5-3/5-3-----------------------------|
G|---------------------------5--------------|
D|-----------------------5-7---7~-----------|
A|-----------------5-7-8--------------------|
E|------------------------------------------|

[Primeira Parte]

                F
Será que é pra tanto
 
Será que eu mereço
                          Am
Não tá alto demais esse preço

Essa troca com troco
                                Dm
Quem tá julgando essa lei do retorno

Fazer ela de besta
       Bb9
Foi caçar pra cabeça

             F
Eu tinha um lar

Eu tinha uma casa

Agora eu tô morando 
       Am
Num motel de rodoviária

Assistindo novela 
        Dm
Numa TV 14 polegadas

Imagem chuviscada
              Bb9
Bombril na antena

Quem me vê dá até pena
            C
E ela tá lá

[Refrão]

                   Bb9
Na cama que eu paguei
            C                     Dm  F
Fazendo o amor que a gente nunca fez
                   Bb9
Na cama que eu paguei
              C
Fazendo todo dia
                      Dm
O que comigo era uma vez por mês

                   Bb9
Na cama que eu paguei
            C                     Dm  F
Fazendo o amor que a gente nunca fez
                   Bb9
Na cama que eu paguei
              C
Fazendo todo dia
                      Dm
O que comigo era uma vez por mês

                   F
O coração aprende de uma vez
     C                  Dm
Pra todo atual vai existir um ex

[Solo] Bb9  C  Dm  Bb9  C  Dm

E|------------------------------------------|
B|-/6-6--5--6-5-----5h6-6-6-6-6-5-----------|
G|-/7-7--5--7-5-7---5h7-7-7-7-7-5-5-5-5-5---|
D|--------------8-----------------7-7-7-7-7-|
A|----------------------------------------8-|
E|------------------------------------------|

E|------------------------------------------|
B|-5h6---5-3/5-3----------------------------|
G|-5h7--------------------------------------|
D|-------5-3/5-3----------------------------|
A|------------------------------------------|
E|------------------------------------------|

E|-/5-5--3--5-3-----/5-5-5-5-5-3------------|
B|-/6-6--5--6-5-6---/6-6-6-6-6-5-5-5-5-5----|
G|--------------7----------------5-5-5-5-5--|
D|---------------------------------------7--|
A|------------------------------------------|
E|------------------------------------------|

E|-/5---3-1/3-1-----------------------------|
B|-/6---5-3/5-3-----------------------------|
G|---------------------------5--------------|
D|-----------------------5-7---7~-----------|
A|-----------------5-7-8--------------------|
E|------------------------------------------|

[Primeira Parte]

                F
Será que é pra tanto
 
Será que eu mereço
                          Am
Não tá alto demais esse preço

Essa troca com troco
                                Dm
Quem tá julgando essa lei do retorno

Fazer ela de besta
       Bb9
Foi caçar pra cabeça

             F
Eu tinha um lar

Eu tinha uma casa

Agora eu tô morando 
       Am
Num motel de rodoviária

Assistindo novela 
        Dm
Numa TV 14 polegadas

Imagem chuviscada
              Bb9
Bombril na antena

Quem me vê dá até pena
            C
E ela tá lá

[Refrão]

                   Bb9
Na cama que eu paguei
            C                     Dm  F
Fazendo o amor que a gente nunca fez
                   Bb9
Na cama que eu paguei
              C
Fazendo todo dia
                      Dm
O que comigo era uma vez por mês

                   Bb9
Na cama que eu paguei
            C                     Dm  F
Fazendo o amor que a gente nunca fez
                   Bb9
Na cama que eu paguei
              C
Fazendo todo dia
                      Dm
O que comigo era uma vez por mês

                   Bb6
O coração aprende de uma vez
     C                  Dm
Pra cada atual vai existir um ex

[Final] Bb9  C  Dm  Bb9  C  Dm

E|------------------------------------------|
B|-/6-6--5--6-5-----5h6-6-6-6-6-5-----------|
G|-/7-7--5--7-5-7---5h7-7-7-7-7-5-5-5-5-5---|
D|--------------8-----------------7-7-7-7-7-|
A|----------------------------------------8-|
E|------------------------------------------|

E|------------------------------------------|
B|-5h6---5-3/5-3----------------------------|
G|-5h7--------------------------------------|
D|-------5-3/5-3----------------------------|
A|------------------------------------------|
E|------------------------------------------|

E|-/5-5--3--5-3-----/5-5-5-5-5-3------------|
B|-/6-6--5--6-5-6---/6-6-6-6-6-5-5-5-5-5----|
G|--------------7----------------5-5-5-5-5--|
D|---------------------------------------7--|
A|------------------------------------------|
E|------------------------------------------|

E|-/5---3-1/3-1-----------------------------|
B|-/6---5-3/5-3-----------------------------|
G|---------------------------5-7~-----------|
D|-----------------------5-7----------------|
A|-----------------5-7-8--------------------|
E|------------------------------------------|
Composición de Bruno Mandioca / Elvis Elan / Henrique Casttro / Maykow Melo
Colaboración y revisión:
  • Lucas Kappaun
6.634 vistas
    • ½ Tono
    • Am
    • Bbm
    • Bm
    • Cm
    • C#m
    • Dm
    • Ebm
    • Em
    • Fm
    • F#m
    • Gm
    • G#m
  • Agregar a la lista

    0 comentarios

    Ver todos los comentarios

    ¿Lograste tocar?

    10 Tocaron 8 Aún no

    ¡Graba un video tocando Na Cama Que Eu Paguei (part. Zé Neto e Cristiano) y envíanoslo!

    00:00 / 00:00
    Outros vídeos desta música
    Repetir Calidad Automático
    Outros vídeos desta música
    00:00 / 00:00
    Automático
    OK