Cifra Club

Medalha de Prata (part. Maiara e Maraisa)

Zé Felipe

Cifrado: Principal (guitarra y guitarra eléctrica)
tono: D
[Intro] D 

E|------------------------------------------|
B|-3---3/7---5---3---3----------------------|
G|-2----------------------------------------|
D|-0-0-----0---0---0------------------------|
A|------------------------------------------|
E|------------------------------------------|

[Primeira Parte] 

 D           A 
Tá mandando foto de vocês pra mim   
Em7         G  
E jurando que tá feliz   
        Bm7                A             G 
Mas tem algo de errado na felicidade de vocês dois 

[Segunda Parte]

                        Bm7 
Tá querendo chamar atenção  
                       A 
Isso não é uma competição   
        G                            Gm    
Mas se fosse me desculpe, mas ele seria   

[Refrão]

             D  
Medalha de prata
                 A 
Um amorzin sem graça  
       Em7                   G 
Ele tenta, mas alguma coisa falta   

             D  
Medalha de prata
                 A 
Um amorzin sem graça  
       Em7                   G 
Ele tenta, mas alguma coisa falta   

      D         A  Em7  G 
E sou eu, falta eu  

[Solo] F  C  Gm  Bb

E|------------------------------------------|
B|-----6-6/8-8------6-6/8-6-----------------|
G|-5-5----------5-5-------------------------|
D|------------------------------------------|
A|------------------------------------------|
E|------------------------------------------|

E|------------------------------------------|
B|-----6-6/8-8/10--10h11p10-8h10p8-6h8-6----|
G|-5-5--------------------------------------|
D|------------------------------------------|
A|------------------------------------------|
E|------------------------------------------|

[Segunda Parte]

        Dm7                             
Mas tem algo de errado 
    C             Bb          
Na felicidade de vocês dois   

[Pré-refrão]

                Dm7 
Tá querendo chamar atenção  
                       C 
Isso não é uma competição   
        Bb                           Bbm
Mas se fosse me desculpe, mas ele seria  

[Refrão]

             F 
Medalha de prata   
                 C 
Um amorzin sem graça  
     Gm                      Bb 
Ele tenta, mas alguma coisa falta  
             F 
Medalha de prata   
                 C 
Um amorzin sem graça  
     Gm                      Bb 
Ele tenta, mas alguma coisa falta  

             F 
Medalha de prata   
                 C 
Um amorzin sem graça  
     Gm                      Bb 
Ele tenta, mas alguma coisa falta  
             F 
Medalha de prata   
                 C 
Um amorzin sem graça  
     Gm                      Bb 
Ele tenta, mas alguma coisa falta   

       F        C  Gm  Bb  
E sou eu, falta eu  
       F         C
E sou eu, falta eu  
     Gm                      Bb
Ele tenta mais alguma coisa falta  

        F         C
Que sou eu, falta eu 

[Final] Gm  Bb  F  C 
        Gm  Bb  F
00:00 / 00:00
Otros videos de esta canción
Repetir
Otros videos de esta canción
Composición de Matheus Di Pádua / Miguell / Normani Pelegrini
Colaboración y revisión:
  • Thiago Almeida
  • Adriele Souza
1.912 vistas
    • ½ Tono
    • A
    • Bb
    • B
    • C
    • Db
    • D
    • Eb
    • E
    • F
    • F#
    • G
    • Ab
  • Agregar a la lista

    0 comentarios

    Ver todos los comentarios

    ¿Lograste tocar?

    2 Tocaron 2 Aún no

    ¡Graba un video tocando Medalha de Prata (part. Maiara e Maraisa) y envíanoslo!

    00:00 / 00:00
    OK