Cifra Club

Out Of My Limit

5 Seconds Of Summer

Cifrado: Principal (guitarra y guitarra eléctrica)
tono: Bb (con acordes en la forma de G) Capotraste en 3ª casa
Intro 2x: G  C  G  D

G             D            C
  Back in high school we used to take it slow
G           D            C
  Red lipstick on and high heel stilettos
G          D         C
  Had a job downtown working the servo
G            D             C
  Had me waiting in line couldn't even let go

     Em          D   C
'Cause I never wanna be that guy
  Em          D  C
Who doesn't even get a taste
Em        D  C
No more having to chase
         D
To win that prize

G           C         G          D
  You're just a little bit out of my limit
          G       C        G       D
It's been two years now you haven't even seen the best of me
      Em        C       G    D
And In my mind now I've been over this a thousand times
       C       D
But it's almost over
            
Let's start over

Interlude 2x: G  D  C

G             D
  Back in high school
           C
We used to make up plans
G             D            C
  Called you up one day to meet split ends

     Em          D  C
'Cause I never wanna be that guy
 Em           D  C
Who doesn't even get a taste
Em        D   C
No more having to chase
        D
To win that prize

G            C                 D
  You're just a little bit out of my limit
          G         C            D
It's been two years now you haven't even seen the best of me
       Em       C          D
And In my mind now I've been over this a thousand times
        C       D
But it's almost over
           
Let's start over

Solo 4x: G   D   C
G           C                  D
  You're just a little bit out of my limit
          G        C             D
It's been two years now you haven't even seen the best of me
      Em        C      G     D
And In my mind now I've been over this a thousand times
       C      D
But it's almost over
            
Let's start over

   Final: G   D   C



E|---------------------------------------------------------------------------|
B|--0-0-0-0-0-1/3------------------------------------------------------------|
G|-----------------2--2-2-2-2p0-0----2p0----2p0------------------------------|
D|--------------------------------0------0------0----------------------------|
A|--------------------------------------------------3------------------------|
E|---------------------------------------------------------------------------|
  
E|-------------|-------------------------------------------------------------|
B|--3p0----(7x)|-3/5---3p0---------------------------------------------------|
G|------2------|------------2p0-----------------------0----------------------|
D|-------------------------------2p0-------------0h2-------------------------|
A|-------------------------------------3----0h2------------------------------|
E|---------------------------------------------------------------------------|
00:00 / 00:00
Otros videos de esta canción
Repetir
Otros videos de esta canción
Composición de Calum Hood / Luke Hemmings
Colaboración y revisión:
3.068 vistas
    • ½ Tono
    • A
    • Bb
    • B
    • C
    • Db
    • D
    • Eb
    • E
    • F
    • F#
    • G
    • Ab
  • Agregar a la lista

    0 comentarios

    Ver todos los comentarios

    ¿Lograste tocar?

    7 Tocaron 0 Aún no

    ¡Graba un video tocando Out Of My Limit y envíanoslo!

    00:00 / 00:00
    OK