Cifra Club

Uma Atriz

A Banda Mais Bonita da Cidade

Chords: Principal (acoustic and electric guitars)
tone: D
A Banda Mais Bonita da Cidade - Uma Atriz

Intro: Bm  F#m  E

    Bm                   
E|----------------------|
B|-----0----------0-----|
G|----------------------|
D|---4----4-----4----4--|
A|2----------2----------|
E|----------------------|

    F#m      E         
E|----------------------|
B|----------------------|
G|-----2----------1-----|
D|--------4----------2--|
A|---4----------2-------|
E|2----------0----------|


Bm
Não me diga que eu amo a mim
F#m              E
Mais do que amo você, meu bem
Bm
Mas de fato as paixões são pra si mesmas
F#m               E
Não são pra mais ninguém
Bm
O que não quer dizer, porém
F#m                   E
Que sozinho eu possa ser feliz
Bm
Pois então decore esse texto
F#m             E                   G
Sob o pretexto de não parecer uma atriz
Bm
Na verdade eu acho que amo você
F#m     E
Melhor que você mesma
Bm
E eu fumo um cigarro, eu bato um carro
F#m        E
Eu espero que você veja
Bm
Que eu não posso viver sob a mira eterna
F#m           E
Desses dois olhos frios
Bm
Olha o tempo passando, e a gente parado

F#m           E              G
fazendo cena pro público rir

D                               Bm
Qualquer coisa é motivo pra uma coisa levar a outra
         E
Não é possível ser esperto, inteligente
                   A
E ao mesmo tempo amar
                                 D
Não vou negar, não vou negar, enfim

D                          Bm
As paixões, meu amor, são tontas, são tantas
          E
Chegou a conta, esteja pronta, aquele ponto
             A
em que tudo muda
                            Bm  E
Não quero ser o último a chorar

Bm
Não me diga que eu amo a mim
F#m              E
Mais do que amo você, meu bem
Bm
Mas de fato as paixões são pra si mesmas
F#m               E
Não são pra mais ninguém
Bm
O que não quer dizer, porém
F#m                   E
Que sozinho eu possa ser feliz
Bm
Pois então decore esse texto
F#m             E                   G
Sob o pretexto de não parecer uma atriz
Bm
Na verdade eu acho que amo você
F#m     E
Melhor que você mesma
Bm
E eu fumo um cigarro, eu bato um carro
F#m        E
Eu espero que você veja
Bm
Que eu não posso viver sob a mira eterna
F#m           E
Desses dois olhos frios
Bm
Olha o tempo passando, e a gente parado

F#m           E              G
fazendo cena pro público rir

D                               Bm
Qualquer coisa é motivo pra uma coisa levar a outra
         E
Não é possível ser esperto, inteligente
                   A
E ao mesmo tempo amar
                                 D
Não vou negar, não vou negar, enfim

D                          Bm
As paixões, meu amor, são tontas, são tantas
          E
Chegou a conta, esteja pronta, aquele ponto
             A
em que tudo muda

Não quero ser o último

D                               Bm
Qualquer coisa é motivo pra uma coisa levar a outra
         E
Não é possível ser esperto, inteligente
                   A
E ao mesmo tempo amar
                                 D
Não vou negar, não vou negar, enfim

D                          Bm
As paixões, meu amor, são tontas, são tantas
          E
Chegou a conta, esteja pronta, aquele ponto
             A
em que tudo muda
                            Bm  E
Não quero ser o último a chorar

Riff primeiro intervalo:

E|---------------------------------------------------------------------------|
B|-----------------------------------------------------------------------12--|
G|-----------9h-11-------------9h-11-------------9h-11-------------9h-11-----|
D|--12-9--12-------12-9--12-9--------12-9--12-9--------12-9--12-9------------|
A|---------------------------------------------------------------------------|
E|---------------------------------------------------------------------------|

 Arranjo dos versos:

E|-------------------------------------------------------------------------|
B|-------------------------------------------------------------------------|
G|-------------------------------------------------------------------------|
D|-----9--9--9--9--12-12-12-12-12-12h11-11-11-11-11-11h9--9--9--9--9--9----|
A|-------------------------------------------------------------------------|
E|-------------------------------------------------------------------------|

 Riff segundo intervalo, antes do primeiro refrão (variação na nota final apenas):

E|----------------------------------------------------------------------------|
B|----------------------------------------------------------------------------|
G|-----------9h-11-------------9h-11-------------9h-11-------------9h-11------|
D|--12-9--12-------12-9--12-9--------12-9--12-9--------12-9--12-9-------------|
A|-----------------------------------------------------------------------12---|
E|----------------------------------------------------------------------------|

 Arranjo refrão:

E|-----------------------------------------------------------|
B|-------10h7-----------------10h-7--------------------------|
G|--------------6-----------------------6---6------6^7^6---4-|
D|-----------------------------------------------------------|
A|-----------------------------------------------------------|
E|-----------------------------------------------------------|

E|---------------------------------------------------------------------------|
B|-------7--7-----5--------7--------9--------12-------3------2---------------|
G|------------------------------------------------------------------4-----2--|
D|---------------------------------------------------------------------------|
A|---------------------------------------------------------------------------|
E|---------------------------------------------------------------------------|

Primeiro Solo:

E|----------------------------------------------------------------------------|
B|--------------------------------------------------------------------10h12---|
G|-------------------------------------------------------------7--------------|
D|---------------7------9^-11-^9------7--9---------------7--9-----9-----------|
A|---------7--------------------------------9h-11-----------------------------|
E|---10-----------------------------------------------------------------------|

Segundo Solo:

E|--------------------------------------------------------|
B|--------------------------------------------------------|
G|--------------------------------------------------------|
D|--------------------------------------------------------|
A|-------5h-7--7/9------------5h-7--7/9-----7h9h7--/5-----|
E|-5h-7----------------5h-7----------------------------7--|

E|-----------------------------------------------------------------------|
B|-----------------------------------------------------------------------|
G|--------------4--------------------------------------------------------|
D|-3h-2h-0----------0----------------------------------------------------|
A|-----------2-----------------------------------------------------------|
E|--------------------------10--10------7h9---7h9-------7h-5---7/9-----7-|

E|------14\-------14--------12-------------------------------------|
B|----15------------15--------12------15---------------12----------|
G|--16-----------------------------------14h-(0)-----------11------|
D|-----------------------------------------------------------------|
A|-----------------------------------------------------------------|
E|-----------------------------------------------------------------|

E|--------------------------------------------|
B|-12---------12------------------------------|
G|--------------------------------------------|
D|-----14---------12----12----12----12--------|
A|---------------------------------------14\--|
E|--------------------------------------------|

E|-----------------------------------------------------------------|
B|----7--------5-------3-------2-----------------------------------|
G|----9^11-----7^9-----5^7-----4^6^---4----------------------------|
D|-----------------------------------------------------------------|
A|-----------------------------------------------------------------|
E|-----------------------------------------------------------------|

E|-----------------| Acordes -----------------
A = X 0 2 2 2 0
Bm = X 2 4 4 3 2
D = X X 0 2 3 2
E = 0 2 2 1 0 0
F#m = 2 4 4 2 2 2
G = 3 2 0 0 0 3
00:00 / 00:00
Other videos of this song
Repeat
Other videos of this song
Composed by Vitor Paiva
Collaboration and Review:
  • Bruno Zaninello
  • Lucas Rhode
  • Ricardo Galitzki
638 views
    • ½ Tone
    • A
    • Bb
    • B
    • C
    • Db
    • D
    • Eb
    • E
    • F
    • F#
    • G
    • Ab
  • Add to list
    00:00 / 00:00
    OK