Cifra Club

Oração

A Banda Mais Bonita da Cidade

Cifrado: Principal (guitarra y guitarra eléctrica)
tono: D
[Intro] D9  C9  D9  C9

   D9
E|------------------------------------------|
B|---5---5---5---5---5---5---5---5----------|
G|------------------------------------------|
D|------------------------------------------|
A|-5---5---5---5---5---5---5---5------------|
E|------------------------------------------|

   C9
E|------------------------------------------|
B|---3---3---3---3---3---3---3---3----------|
G|------------------------------------------|
D|------------------------------------------|
A|-3---3---3---3---3---3---3---3------------|
E|------------------------------------------|

   D9
E|------------------------------------------|
B|---5---5---5---5---5---5---5---5----------|
G|------------------------------------------|
D|------------------------------------------|
A|-5---5---5---5---5---5---5---5------------|
E|------------------------------------------|

   C9
E|------------------------------------------|
B|---3---3---3---3---3---3---3---3----------|
G|------------------------------------------|
D|------------------------------------------|
A|-3---3---3---3---3---3---3---3------------|
E|------------------------------------------|

[Dedilhado Padrão]

   D9               A9
E|------------------------------------------|
B|---5---5---5---5--------------------------|
G|--------------------2---2---2---2---------|
D|------------------------------------------|
A|-5---5---5---5----0---0---0---0-----------|
E|------------------------------------------|

   Bm7              G
E|------------------------------------------|
B|--------------------0---0---0---0---------|
G|---2---2---2---2--------------------------|
D|------------------------------------------|
A|-2---2---2---2----------------------------|
E|------------------3---3---3---3-----------|

E|------------------------------------------|
B|---2---3---2---3---2---3---2---3----------|
G|------------------------------------------|
D|------------------------------------------|
A|------------------------------------------|
E|-3---3---3---3---3---3---3---3------------|

E|------------------------------------------|
B|---2---3---2---3---2---3---2---3---2---3--|
G|------------------------------------------|
D|------------------------------------------|
A|------------------------------------------|
E|-3---3---3---3---3---3---3---3---3---3----|

   D9
E|------------------------------------------|
B|---5---5---5---5---5---5---5---5----------|
G|------------------------------------------|
D|------------------------------------------|
A|-5---5---5---5---5---5---5---5------------|
E|------------------------------------------|

   C9
E|------------------------------------------|
B|---3---3---3---3---3---3---3---3----------|
G|------------------------------------------|
D|------------------------------------------|
A|-3---3---3---3---3---3---3---3------------|
E|------------------------------------------|

   D9
E|------------------------------------------|
B|---5---5---5---5---5---5---5---5----------|
G|------------------------------------------|
D|------------------------------------------|
A|-5---5---5---5---5---5---5---5------------|
E|------------------------------------------|

   C9
E|------------------------------------------|
B|---3---3---3---3---3---3---3---3----------|
G|------------------------------------------|
D|------------------------------------------|
A|-3---3---3---3---3---3---3---3------------|
E|------------------------------------------|

    D9
Meu amor
         A9         Bm7
Essa é a última oração
        G
Pra salvar seu coração

Coração não é tão simples quanto pensa

Nele cabe o que não cabe na dispensa
        D9
Cabe o meu amor
        C9
Cabem três vidas inteiras
       D9
Cabe uma penteadeira
   C9
Cabe nós dois

            D9
Cabe até o meu amor
         A9         Bm7
Essa é a última oração
        G
Pra salvar seu coração

Coração não é tão simples quanto pensa

Nele cabe o que não cabe na dispensa
        D9
Cabe o meu amor
        C9
Cabem três vidas inteiras
       D9
Cabe uma penteadeira
   C9
Cabe nós dois

            D9
Cabe até o meu amor
         A9         Bm7
Essa é a última oração
        G
Pra salvar seu coração

Coração não é tão simples quanto pensa

Nele cabe o que não cabe na dispensa
        D9
Cabe o meu amor
        C9
Cabem três vidas inteiras
       D9
Cabe uma penteadeira
   C9
Cabe nós dois

            D9
Cabe até o meu amor
         A9         Bm7
Essa é a última oração
        G
Pra salvar seu coração

Coração não é tão simples quanto pensa

Nele cabe o que não cabe na dispensa
        D9
Cabe o meu amor
        C9
Cabem três vidas inteiras
       D9
Cabe uma penteadeira
   C9
Cabe nós dois

            D9
Cabe até o meu amor
         A9         Bm7
Essa é a última oração
        G
Pra salvar seu coração

Coração não é tão simples quanto pensa

Nele cabe o que não cabe na dispensa
        D9
Cabe o meu amor
        C9
Cabem três vidas inteiras
       D9
Cabe uma penteadeira
   C9
Cabe nós dois

            D9
Cabe até o meu amor
         A9         Bm7
Essa é a última oração
        G
Pra salvar seu coração

Coração não é tão simples quanto pensa

Nele cabe o que não cabe na dispensa
        D9
Cabe o meu amor
        C9
Cabem três vidas inteiras
       D9
Cabe uma penteadeira
   C9
Cabe nós dois

            D9
Cabe até o meu amor
         A9         Bm7
Essa é a última oração
        G
Pra salvar seu coração

Coração não é tão simples quanto pensa

Nele cabe o que não cabe na dispensa
        D9
Cabe o meu amor
        C9
Cabem três vidas inteiras
       D9
Cabe uma penteadeira
   C9
Cabe nós dois

            D9
Cabe até o meu amor
         A9         Bm7
Essa é a última oração
        G
Pra salvar seu coração

Coração não é tão simples quanto pensa

Nele cabe o que não cabe na dispensa
        D9
Cabe o meu amor
        C9
Cabem três vidas inteiras
       D9
Cabe uma penteadeira
   C9
Cabe nós dois

            D9
Cabe até o meu amor
         A9         Bm7
Essa é a última oração
        G
Pra salvar seu coração

Coração não é tão simples quanto pensa

Nele cabe o que não cabe na dispensa
        D9
Cabe o meu amor
        C9
Cabem três vidas inteiras
       D9
Cabe uma penteadeira
   C9
Cabe nós dois

            D9
Cabe até o meu amor
         A9         Bm7
Essa é a última oração
        G
Pra salvar seu coração

Coração não é tão simples quanto pensa

Nele cabe o que não cabe na dispensa
        D9
Cabe o meu amor
        C9
Cabem três vidas inteiras
       D9
Cabe uma penteadeira
   
Cabe essa oração
00:00 / 00:00
Otros videos de esta canción
Repetir
Otros videos de esta canción
Composición de Leo Fressato
14.426 exhibiciones
    • ½ Tono
    • A
    • Bb
    • B
    • C
    • Db
    • D
    • Eb
    • E
    • F
    • F#
    • G
    • Ab
  • Agregar a la lista
    00:00 / 00:00
    OK