Cifra Club

Sound Of Music

Adicts

Cifrado: Principal (guitarra y guitarra eléctrica)
tono: B

tabbed by *


Intro

e---------------------------------------------------------------------|
B---------------------------------------------------------------------|
G---------------------------------------------------------------------|
D--9-11-8-7-6-8-6-5-4-------8-9-9-9-9--8-9-9-9-9---8-9-9-9-9----------|
A--9-11-8-7-6-8-6-5-4-------8-9-9-9-9--8-9-9-9-9---8-9-9-9-9----------|
E--7-9--6-5-4-6-4-3-2-------6-7-7-7-7--6-7-7-7-7---6-7-7-7-7----------|

Verse

e---------------------------------------------------------------------|
B---------------------------------------------------------------------|
G------------------11-x-x--x-x--x--11---------------------------------|
D-9-x-x--x-x--x-9--11-x-x--x-x--x--11---------------------------------|
A-9-x-x--x-x--x-9--9--x-x--x-x--x--9----------------------------------|
E-7-x-x--x-x--x-7-----------------------------------------------------|

e---------------------------------------------------------------------|
B---------------------------------------------------------------------|
G--9-9-9--9-9-9--11-11-11--11-11-11--9-9-9--9-9-9--11-11-11-----------|
D--9-9-9--9-9-9--11-11-11--11-11-11--9-9-9--9-9-9--11-11-11---9-------|
A--7-7-7--7-7-7--9--9--9---9--9--9---7-7-7--7-7-7---9--9--9---9-------|
E-------------------------------------------------------------7-------|


Chorus

e---------------------------------------------------------------------|
B---------------------------------------------------------------------|
G-9-9-9--9-9-9---------------11-11-11--11-11-11-----------------------|
D-9-9-9--9-9-9-9-9-9--9-9-9--11-11-11--11-11-11-9-9-9--9-9-9----------|
A-7-7-7--7-7-7-9-9-9--9-9-9---9--9--9---9--9--9-9-9-9--9-9-9----------|
E--------------7-7-7--7-7-7---------------------7-7-7--7-7-7----------|

e---------------------------------------------------------------------|
B---------------------------------------------------------------------|
G-9--11--13-----------------------------------------------------------|
D-----------9--11--13---------------9--11--13-------------------------|
A-----------------------9--11--13---------------9--11--13-------------|
E---------------------------------------------------------------------|

Bridge

e---------------------------------------------------------------------|
B---------------------------------------------------------------------|
G---------------------------------------------------------------------|
D-----8----9---------8-----9-----------8-------9----------------------|
A-----8----9---------8-----9-----------8-------9----------------------|
E-----6----7---------6-----7-----------6-------7----------------------|

Outro

with same chords as chorus
e---------------------------------------------------------------------|
B---------------------------------------------------------------------|
G-9--11--13-----------9--11--13----13--11h13p11-----------------------|
D-----------9--11--13---------------------------9--11--13-------------|
A-----------------------------------------------------------9--11--13-|
E---------------------------------------------------------------------|

any corrections/comments needed contact me, please rate
Compositor não encontrado.
68 vistas
    • ½ Tono
    • A
    • Bb
    • B
    • C
    • Db
    • D
    • Eb
    • E
    • F
    • F#
    • G
    • Ab
  • Agregar a la lista

    0 comentarios

    Ver todos los comentarios

    ¿Lograste tocar?

    0 Tocaron 0 Aún no

    ¡Graba un video tocando Sound Of Music y envíanoslo!

    00:00 / 00:00
    Outros vídeos desta música
    Repetir Calidad Automático
    Outros vídeos desta música
    00:00 / 00:00
    Automático
    OK