Cifra Club

Heat Of The Moment

Asia

Cifrado: Versão 4 (guitarra y guitarra eléctrica)
Acompaña nuestras novedades de Cifra Club en español.
¡Sigue nuestro perfil en Instagram!
tono: F#
Tabbed by: gd_td_mcr
Email: *

Tuning: Standard


Intro/Verse

e|---------------------------------------------------------------------------|
B|---------------------------------------------------------------------------|
G|------------------------6-6------------------------------------------------|
D|--6----8----4----6------6-6------------------------------------------------|
A|--6----8----4----6------4-4------------------------------------------------|
E|--4----6----2----4---------------------------------------------------------|


Do this the 4th time he sings.

e|---------------------------------------------------------------------------|
B|---------------------------------------------------------------------------|
G|---------------------------------------------------------------------------|
D|--6----8----4----6------4--4----4-4-4-4-4-4-4-4----------------------------|
A|--6----8----4----6------4--4----4-4-4-4-4-4-4-4----------------------------|
E|--4----6----2----4------2--2----2-2-2-2-2-2-2-2----------------------------|           
                               PM _____________

Chorus

e|---------------------------------------------------------------------------|
B|---------------------------------------------------------------------------|
G|--6-x4---------------------------------------------------------------------|
D|--6----6-x4---8-x4--4-x4------------------------8--------------------------|
A|--4----6------8-----4---------------------------8--------------------------|
E|-------4------6-----2---------------------------6--------------------------|           
             Do this 4 times then

In the backround another guitar plays this in the Chorus.

e|---------------------------------------------------------------------------|
B|--------6------------------------------------------------------------------|
G|------6---------5-------7-------3------------------------------------------|
D|----6---------6-------8-------4--------------------------------------------|
A|--4---------6-------8-------4----------------------------------------------|
E|----------4-------6-------2------------------------------------------------|

Bridge

e|---------------------------------------------------------------------------|
B|----------------6--4-------------------------------------------------------|
G|----------------------6--5--------3----------------------------------------|
D|----------------------------6--3-------------------------------------------|
A|--1/11---------------------------------------------------------------------|
E|---------------------------------------------------------------------------|

e|---------------------------------------------------------------------------|
B|----------------6--4-------------------------------------------------------|
G|----------------------6--5--------3----------------------------------------|
D|----------------------------6--3-------------------------------------------|
A|--1/11---------------------------------------------------------------------|
E|---------------------------------------------------------------------------|

e|---------------------------------------------------------------------------|
B|----------------6--4-------------------------------------------------------|
G|----------------------6--5--------3----------------------------------------|
D|----------------------------6--3-------------------------------------------|
A|--1/11---------------------------------------------------------------------|
E|---------------------------------------------------------------------------|

e|---------------------------------------------------------------------------|
B|---------------6--4--------------------------------------------------------|
G|---------------------6--5--------------------------------------------------|
D|---------------------------6--3------4----4-4-4-4-4-4-4-4------------------|
A|--1/11-------------------------------4----4-4-4-4-4-4-4-4------------------|
E|-------------------------------------2----2-2-2-2-2-2-2-2------------------|           
                                          PM_______________

Intro
Verse 1
Chorus
Verse 2
Chorus
Bridge
Verse 3
Chorus
Solo

| /  slide up
| \  slide down
| h  hammer-on
| p  pull-off
| ~  vibrato
| +  harmonic
| x  Mute note
===============================================================================
Composición de Geoff Downes / John Wetton
8 vistas
    • ½ Tono
    • A
    • Bb
    • B
    • C
    • Db
    • D
    • Eb
    • E
    • F
    • F#
    • G
    • Ab
  • Agregar a la lista

    0 comentarios

    Ver todos los comentarios

    ¿Lograste tocar?

    0 Tocaron 0 Aún no

    ¡Graba un video tocando Heat Of The Moment y envíanoslo!

    00:00 / 00:00
    Outros vídeos desta música
    Repetir Calidad Automático
    Outros vídeos desta música
    00:00 / 00:00
    Automático
    OK