Cifra Club

Spirit

Bauhaus

Cifrado: Principal (guitarra y guitarra eléctrica)
Selo Cifra Club: esta cifra foi revisada para atender aos critérios oficiais da nossa Equipe de Qualidade.
tono: Am
Intro (guitar)

E|---------------------------------|
B|---------------------------------| Another guitar comes and doubles this
G|---------------------------------| second time through.
D|---------------------------------|
A|-2/3-3-3-3-3-3-3-3-3-3-3-3-3-3-3-|
E|---------------------------------|

Now that synth thing comes in.  It does this (transcribed for the guitar):

E|-7h8h11---11p8p7--| -6p5p3------|
B|------------------| ------------|
G|------------------| a few times and then  ------------|
D|------------------| ------------|
A|------------------| ------------|
E|------------------| ------------|

This goes on throughout the first verse.  When I play it, I usually just
play along with it like this (with a clean tone):

D (power chord)               B (power)
Tonight I could be with you   Or waiting in the wings

D (power)                           B (power)
Lift your heart with soaring song   Cut down the puppet strings

G (major)                          G (major)
Cut down the puppet strings

I really don't know if there *is* guitar here.  If so, it's not very
prominent.  Anyway, I'm pretty sure all the instruments go
D B D B G G  for the verses....

In the break before the third verse, the synth goes:

E|-----------------------------------------------------|
B|-----------------------------------------------------|
G|---------------------------------0------------0------|
D|-3-----2-3-2--3-3-------2-3-2--3----3-2-3-2-3--------|
A|-----------------------------------------------------|
E|-----------------------------------------------------|

During the "If I am on the sidelines..." and the  "I may tap you on the
shoulder..." parts, I don't know what the synth is doing.... anybody?

That's about it.  If anybody knows what the guitar is really doing here,
I'd appreciate it.  IMHO, this is the best song off of "The Sky's Gone Out"
and I'd love to get any corrections if you got any.  Thanks...

phungus@camelot.bradley.edu



Intro Acoustic guitar
| E |  E |
| G  | F  | G | F |

Synth bit over G and E
E|--7-8-10--|--10-8-7--|
B|----------|----------|


| G  |F/E F |
i.e. hammer on F on bar 3...

G
Tonight I could be with you
F
Or waiting in the Wings
G
Lift your heart with soaring song
F
Cut down the puppet strings
G
Cut down the puppet strings

F G F
Verse 2 as above


Electric guitar comes in
                                         
E|------------|----------|
B|-15---------|-------15-|
G|------14----|-------16-|
D|---------12-|----------|

                Feedback on this note
E|-------------|-15----|
B|--15---------|-------|
G|--12--12-----|-------|
D|----------12-|-------|

D
I fill you up with butterflies
Bm
Crown the heads of kings
D
Be glad of first night nerves
Bm
For fear gives courage wings
G
Fear gives courage wings

E G E


|Bb | A C |
if I am on the sidelines
|Bb | A C |
chances are you'll miss

|Bb | A G  |
wait alone and spotlit

|Bb | A Ab |
for dr theatres kiss

Bass     G         C

      Dm           Am/C
E|---------10-|----------|
B|---8-10-8---|-8-10-8--8|
G|-7----------|----------|
D|------------|----------|

If I am on the sidelines

Bass         A     C
    (Bb)     Am    C

E|----------|------8---|
B|-6--------|------8---|
G|-7--------|-9--------|
D|(8)-------|-7--------|

Chances are you'll miss

Dm          Am/C
Wait alone and spotlit   


      Dm           Am/C
E|-------10---|---17-17-17-17-15-|
B|----10---10-|-15-15-15-15------|
G|-7----------|------------------|
D|------------|------------------|
For Doctor Theatre's kiss

Verse 3 + Verse 4

G                C
I may tap you on the shoulder
D                C
And whisper "go" in red
G                C 
Strip your feet of lead my friend
D                C
Strip your feet of lead


Funny lead bit over verse chords 

D|------------|--------------|
A|------------|-17-----------|
E|-10-/----17-|---17-/-10----|

G E G E

D
I fill you up with butterflies
Bm
Crown the heads of kings
D
Be glad of first night nerves
Bm
For fear gives courage wings
G
Fear gives courage wings

E G E


Bass              C 
     G           Am/C
E|-----5---|------5-----|
B|-3-5---5-|--3------5--|
G|---------|------------|
Call the curtain


Bass             A    C
      Dm         A    C
E|-----3-5-|---------------|
B|-3-------|-10-10-10--8-8-|
G|---------|-7--7--7---7-7-|

D            C
Raise the roof


Keyboard fill over 1st bar of each above
E|----3-3--|
B|--3------|
G|---------|

variations of above until end

Spirits on tonight


chords repeat till end
|Bb | A C |
|Bb | A C |
|Bb | A F |
| G | G  |


|Bb | A C |
Call the curtain

|Bb | A C |
Raise the roof

|Bb | A F |
Call the curtain

| G | G  |
Spirits on tonight


|Bb | A C |
I could be with you 

|Bb | A C |
or waiting in the wings

|Bb | A C |
call the curtain raise the roof

| G | G  |
spirits on tonight

call..

raise ...

spirits ...

call the...

raise ..

spirits ...

|Bb | A C |
we love

|Bb | A C |
we love

|Bb | A F |
we love

| G | G | 
we love our audience
00:00 / 00:00
Otros videos de esta canción
Repetir
Otros videos de esta canción
31 exhibiciones
    • ½ Tono
    • Am
    • Bbm
    • Bm
    • Cm
    • C#m
    • Dm
    • Ebm
    • Em
    • Fm
    • F#m
    • Gm
    • G#m
  • Agregar a la lista

Afinación de cifrado

Afinador online

    00:00 / 00:00
    OK