Cifra Club

Perro Amor Explota

Bersuit Vergarabat

Cifrado: Versão 3 (guitarra y guitarra eléctrica)
tono: E

Intro de acordeón:
E|----------------------------------------------------------------------------------|
B|-----------------------------------------------------------3-3-2-2-1-1-0--5-3-1---|
G|--------------------------------------------------2-4-5-4-----------------------2-|
D|----2-0-2--0---0---------------2-0-2--2-4-5---4-5---------------------------------|
A|-2-----------2----3-2-3--2---2----------------------------------------------------|
E|----------------------------------------------------------------------------------|

E5        G5
En un país de mudos
C5         B5
se escucha un gran silencio,
no se percibe
que algo va a pasar.

Se esconde lo sublime
detrás de un nuevo engendro
que derrama baba
sobre la ciudad.

Adrenalina desalmada
abre grietas ondas.
Nada recicla esta contención,
el choque no se puede evitar.

E|--------------------------------------------------------|
B|--------------------------------------------------------|
G|--------------------------------------------------------| Inter con
D|--------7-------------------------------7----------9-7--| acordeón
A|-7-9-10---10-9-7----5-7-6-6-7-9--7-9-10---10-9-7--------|
E|------------------8------------------------------8------|

Está tan contenido
Que se hace invisible
Y en lava hirviendo
abajo de tu hogar.

Tarea de alegría
apenas huele sangre y
no se conforma
con alucinar.

E|-------------------------------------------------------------|
B|-------------------------------------------------------------|
G|-------------------------------------------------7-----------| Inter con
D|--------7-------------------------------7----------10-9-7----| acordeón
A|-7-9-10---10-9-7----5-7-6-6-7-9--7-9-10---10-9-7----------10-|
E|------------------8------------------------------------------|

C5              E5 F#5 G5
Muy lejos del mar
C5             E5    G5
se encierra otra sal.
           A5
Crecen sus ojos
B5
como un destello
que no te deja dormir.

Hambre de perro quiero
oliendo tu dulzura,
y cuando está caliente
muerde la yugular.

Mata porque quiere morir
Pero no sabe cómo.
No quiere ser feliz
ni quiere descansar.

E5     G5      C5      B5
Mirá adonde dejás la basura,
E5    G5   C5   B5
el amor explota.
E5     G5      C5      B5
Nadie está salvo de la locura
E5     G5   C5    B5
pero amor te toca.

Solo de acordeón

Muy lejos del mar
se encierra otra sal.
Lleva en sus ojos
señas de un tiempo
que pronto está por venir.

Perro caliente    \nno deja nada,     |
el amor explota.  |  Sin
Perro con hambre  | música
perro con bolas,  |
el amor explota.  /

Acorralado        \nte mete balas,    |
el amor explota.  | Entra el
Un amor perro     | acordeón
no se controla,   |
el amor explota.  /

E5 G5 C5 B5
(El amor explota...)
¡Muerde, muerde... muerde la yugular!
(El amor explota...)
¡Perro que ladra no muerde!
Pero muerde...
(El amor explota...)
si no lo dejan ladrar.
¡Mata...
(El amor explota...)
porque quiere morir!
Perro amor!!!
(El amor explota...)
Perro explota, explota, explota, explota...
(El amor explota...)
B5 E5
00:00 / 00:00
Otros videos de esta canción
Repetir
Otros videos de esta canción
Composición de Carlos Martin
3 vistas
    • ½ Tono
    • A
    • Bb
    • B
    • C
    • Db
    • D
    • Eb
    • E
    • F
    • F#
    • G
    • Ab
  • Agregar a la lista

    0 comentarios

    Ver todos los comentarios
    00:00 / 00:00
    OK