Cifra Club

Convalescencia en Valencia

Bersuit Vergarabat

Cifrado: Principal (guitarra y guitarra eléctrica)
tono: Gm

Convalescencia en Valencia (sólo)|
E|----------------------------------|
esta es mi version del solo, suerte!!

e|E|----------------------------------|-----------------------------
b|E|----------------------------------|-----------------------------
g|-------5p7-------------7p5------7-7-------------5--------------
d|E|----------------------------------|--8-8-7--7-8----8-7----------
a|E|----------------------------------|-----------------------------
E|E|----------------------------------|-----------------------------

e|E|----------------------------------|-------------------------11--
b|--------------------------------6-8-10p11--11p13--11--10p8-----
g|-------------------------5-7-8---------------------------------
d|-4-4--5--7p8--5----5-7-8E|----------------------------------|-----
a|E|----------------------------------|-----------------------------
E|E|----------------------------------|-----------------------------

e|------------------------------10--11--8--10-----------------10-
b|--10-11--10p11p10---------11------------------11-10-------11---
g|-------------------11-12----------------------------11-12------
d|E|----------------------------------|-----------------------------
a|E|----------------------------------|-----------------------------
E|E|----------------------------------|-----------------------------

e|-11---15E|----------------------------------|---------------------
b|--------15------11-10-8-7p8p7E|----------------------------------|
g|E|----------------------------------|------3p5p3------------------
d|E|----------------------------------|-------------8-7-5-4p5p4-----
a|E|----------------------------------|-----------------------------
E|E|----------------------------------|-----------------------------

e|----------------5-------------8--------------------------------
b|--------------7---8-7-8-10-11---10---7-8-10-11-----------------
g|----------5-7E|----------------------------------|7-5-------------
d|----5-7-8E|----------------------------------|--------8-7-5-4-5---
a|E|----------------------------------|-----------------------------
E|E|----------------------------------|-----------------------------
00:00 / 00:00
Otros videos de esta canción
Repetir
Otros videos de esta canción
Composición de Subirá
137 vistas
    • ½ Tono
    • Am
    • Bbm
    • Bm
    • Cm
    • C#m
    • Dm
    • Ebm
    • Em
    • Fm
    • F#m
    • Gm
    • G#m
  • Agregar a la lista

    0 comentarios

    Ver todos los comentarios

    ¿Lograste tocar?

    0 Tocaron 0 Aún no

    ¡Graba un video tocando Convalescencia en Valencia y envíanoslo!

    00:00 / 00:00
    OK