Cifra Club

Story Of A Lonely Guy

blink-182

Cifrado: Principal (guitarra y guitarra eléctrica)
Selo Cifra Club: esta cifra foi revisada para atender aos critérios oficiais da nossa Equipe de Qualidade.
tono: A
[Tab - Intro - 2x]

   A5             E5   
E|----------------------------------------------|
B|-------10-10-10-12-12-12-12-12-12-12-12-12-12-|
G|-9-9-9----------------------------------------|
D|----------------------------------------------|
A|----------------------------------------------|
E|----------------------------------------------|

   F#5            D5
E|----------------------------------------------|
B|-------10-10-10-12-12-12-10-10-10-10-10-10-10-|
G|-9-9-9----------------------------------------|
D|----------------------------------------------|
A|----------------------------------------------|
E|----------------------------------------------|

[Primeira Parte]

A5        B5
  Push it out
        A/C#
Fake a smile
        D5
Avert disaster
        A5
Just in time
         B5
I need a drink
           A/C#
Cause in a while
          D5
Worthless answers from
           A5
Friends of mine
              B5
It's dumb to ask
           A/C#
Cool to ignore
         D5
Girls possess me but
               A5
They're never mine
          B5
I made my entrance
         A/C#
Avoided hazards
           D5
Checked my engine I fell behind

[Pré-Refrão]

[Tab - Pré-Refrão]

   A/C#        D5          A5          E5
E|-------------------------------------------------|
B|-------------------------------------------------|
G|-------------------------------------------------|
D|-----7-----7-----7-----7-----7-----7-----9-----9-| (2x)
A|-4-4---4-4---5-5---5-5---0-0---0-0---7-7---7-7---|
E|-------------------------------------------------|

A/C#  D5
Da da da da
A5    E5
Da da da da da I fell behind

A/C#  D5    A5
Da da da da da
   E5
Da da da da

[Refrão]

A5             E5
  She makes me feel like
      F#5        D5
It's raining outside
A5                E5
   And when the storm's gone
         F#5       D5
I'm all torn up inside
A5             E5       F#5
   I'm always nervous on
                D5
Days like this like the prom
A5             E5
   I get too scared to move
      F#5           D5
Cause I'm a fucking boy

( A5  E5  F#5  D5 )
( A5  E5  F#5  D5 )

[Tab - Interlúdio]

   A5             E5   
E|----------------------------------------------|
B|-------10-10-10-12-12-12-12-12-12-12-12-12-12-|
G|-9-9-9----------------------------------------|
D|----------------------------------------------|
A|----------------------------------------------|
E|----------------------------------------------|

   F#5            D5
E|----------------------------------------------|
B|-------10-10-10-12-12-12-10-10-10-10-10-10-10-|
G|-9-9-9----------------------------------------|
D|----------------------------------------------|
A|----------------------------------------------|
E|----------------------------------------------|

[Segunda Parte]

A5         B5         A/C#
  Remember when I was in
             D5
The grocery store
         A5
Now's my time
         B5
Lost the words
         A/C#
Lost the nerve
         D5
Lost the girl
         A5
Left the line
        B5
I would wish
        A/C#
Upon a star
          D5
But that star
           A5
It doesn't shine
           B5
So read my book
              A/C#
With a boring ending
         D5
A short story of a lonely guy

[Pré-Refrão]

[Tab - Pré-Refrão]

   A/C#        D5          A5          E5
E|-------------------------------------------------|
B|-------------------------------------------------|
G|-------------------------------------------------|
D|-----7-----7-----7-----7-----7-----7-----9-----9-| (2x)
A|-4-4---4-4---5-5---5-5---0-0---0-0---7-7---7-7---|
E|-------------------------------------------------|

A/C#  D5
Da da da da
A5    E5
Da da da da da I fell behind

A/C#  D5    A5
Da da da da da
   E5
Da da da da

[Refrão]

A5             E5
  She makes me feel like
     F#5        D5
It's raining outside
A5              E5
  And when the storm's gone
        F#5       D5
I'm all torn up inside
A5           E5        F#5
  I'm always nervous on days
          D5
Like this like the prom
A5          E5
  I get too scared to move
      F#5           D5
Cause I'm a fucking boy

[Ponte] A/C#  D5  E5  
        A/C#  D5  E5
        A/C#  D5  E5
        A/C#  D5

[Tab - Ponte]

   A/C#            D5                E5
E|---------------------------------------------------------|
B|---------------------------------------------------------|
G|---------------------------------------------------------|
D|-----7-------7-------7-------7-----9-9-9-9-9-9-9-9-9-9-9-|
A|-4-4---4-4-4---4-5-5---5-5-5---5---7-7-7-7-7-7-7-7-7-7-7-|
E|---------------------------------------------------------|

   A/C#            D5                E5
E|---------------------------------------------------------|
B|---------------------------------------------------------|
G|---------------------------------------------------------|
D|-----7-------7-------7-------7-----9-9-9-9-9-9-9-9-9-9-9-|
A|-4-4---4-4-4---4-5-5---5-5-5---5---7-7-7-7-7-7-7-7-7-7-7-|
E|---------------------------------------------------------|

   A/C#        D5          E5
E|-------------------------------------------------|
B|-------------------------------------------------|
G|-------------------------------------------------|
D|-----7-----7-----7-----7-----7-----7-----7-----7-|
A|-4-4---4-4---5-5---5-5---7-7---7-7---7-7---7-7---|
E|-------------------------------------------------|

   A/C#        D5
E|--------------------------|
B|--------------------------|
G|--------------------------|
D|-----7-----7-----7-----7--|
A|-4-4---4-4---5-5---5-5----|
E|--------------------------|

A5    E5
Da da da da
F#5   D5
Da da da da da

A5    E5
Da da da da
F#5   D5
Da da da da da

[Refrão]

A5             E5
  She makes me feel like
     F#5        D5
It's raining outside
A5              E5
  And when the storm's gone
        F#5       D5
I'm all torn up inside
A5           E5        F#5
  I'm always nervous on days
          D5
Like this like the prom
A5           E5
  I get too scared to move
      F#5
Cause I'm still just a
 D5              A5
Stupid worthless boy!
00:00 / 00:00
Otros videos de esta canción
Repetir
Otros videos de esta canción
44.486 exhibiciones
    • ½ Tono
    • A
    • Bb
    • B
    • C
    • Db
    • D
    • Eb
    • E
    • F
    • F#
    • G
    • Ab
  • Agregar a la lista

Afinación de cifrado

Afinador online

    00:00 / 00:00
    OK