Cifra Club

I Hope You Die

Bloodhound Gang

Cifrado: Principal (guitarra y guitarra eléctrica)
tono: Db
Transcribed by: Ben Gullen 



pm = palm mute 

[INTRO:] (Guitar 1) 
e|---------------------------------------------------------------------| 
B|---------------------------------------------------------------------| 
G|---------------------------------------------------------------------| 
D|---------------------------------------------------------------------|  X4 
A|------8-----8---------4-----4---------11-----11---------6-----6------| 
E|--6-6---6-6---6-6-2-2---2-2---2-2-9-9----9-9----9-9-4-4---4-4---4-4--| 
pm  . .   . .   . . . .   . .   . . . .    . .    . . . .   . .   . . 

  (Guitar 2) 
e|----------------------------| 
B|----------------------------| 
G|----------------6-6---------| 
D|--8-8----4-4----6-6----6-6--| X2 
A|--8-8----4-4----4-4----6-6--| 
E|--6-6----2-2-----------4-4--| 

e|-----------------------------------------| 
B|-----------------------------------------| 
G|----------------------6-6-6-6------------| 
D|--8-8-8-8---4-4-4-4---6-6-6-6---6-6-6-6--|     X2 
A|--8-8-8-8---4-4-4-4---4-4-4-4---6-6-6-6--| 
E|--6-6-6-6---2-2-2-2-------------4-4-4-4--| 

[RIFF:] 
e|-------------------------------------| 
B|-------------------------------------| 
G|-------------------------------------| 
D|--8---8-10-11---11-13-15---15-16-18--| 
A|-------------------------------------| 
E|-------------------------------------| 

[Verse:] 
e|-----------------------------------------| 
B|-----------------------------------------| 
G|----------------------6-6-6-6------------| 
D|--8-8-8-8---4-4-4-4---6-6-6-6---6-6-6-6--| 
A|--8-8-8-8---4-4-4-4---4-4-4-4---6-6-6-6--| 
E|--6-6-6-6---2-2-2-2-------------4-4-4-4--| 

[BRIDGE:] 
E|-------------------------------------------------------------------| 
B|--------6--6--6-7-6-4-6--6--6-7-6-4-------6--6--6-7-6-4-6----------| 
G|-------------------------------------------------------------------| 
D|--8--4------------------------------8--4---------------------------| 
A|--8--4------------------------------8--4---------------------------| 
E|--6--2------------------------------6--2---------------------------| 
PM  .  .                              .  . 


============================================================================ 


[LYRICS:] 

You must die I alone am best! 

I hope ya flip some guy the bird 
He cuts you off and you're forced to swerve 
In front of the Beatles' tour bus 
A Bookmobile and a Mack truck 
Hauling hazardous biological waste 
The light turns red you have no brakes 
And "Hard Copy" gets it all on tape 
So you can see the look on your face 

Die Die Die Die Die Die Die 
Die Die Die Die Die Die Die 

I hope your Pinto begins to spin 
Takes out a disabled Vietnam Veteran 
Mows down a Nobel Peace Prize Winner 
And maybe some orphans having Christmas dinner 
Perhaps even the British Royal Family 
And the Rabbi that's clutching the bottle-fed puppy 
And we can't forget the newlyweds 
And those Jerry's Kids are as good as dead 

I hope this helps to emphasize 
I hope this helps to clarify 
I hope you die 

I hope your cellmate thinks he's God 
But C.N.N. refer to him as "Bowling Ball Bag Bob" 
Serving time again for abuse of a corpse 
Only this time the victim's a Clydesdale horse 
While he masturbates to photos of livestock 
He does the "Silence of the Lambs" dance to Christian Rock 
Eats feces and quotes from "Deliverance" 
And fights with his imaginary playmate Vince 

Die Die Die Die Die Die Die 
Die Die Die Die Die Die Die 

I hope he grins like Jack Nicholson 
And forces you to play a game called "Balls On Chin" 
And whatever happens next is all a blur 
But you remember "fist" can be a verb 
And when you finally regain consciousness 
You're bound and gagged in a wedding dress 
And the prison guard looks the other way 
'Cause he's the guy ya flipped the bird the other day 

I hope this helps to emphasize 
I hope this helps to clarify 
I hope you die 

I hope you die 

[END:] 
00:00 / 00:00
Otros videos de esta canción
Repetir
Otros videos de esta canción
Composición de Jimmy Pop Ali
52 vistas
    • ½ Tono
    • A
    • Bb
    • B
    • C
    • Db
    • D
    • Eb
    • E
    • F
    • F#
    • G
    • Ab
  • Agregar a la lista

    0 comentarios

    Ver todos los comentarios

    ¿Lograste tocar?

    0 Tocaron 0 Aún no

    ¡Graba un video tocando I Hope You Die y envíanoslo!

    00:00 / 00:00
    OK