Cifra Club

How Can You Swallow So Much Sleep

Bombay Bicycle Club

Cifrado: Principal (guitarra y guitarra eléctrica)
tono: C
E|-------||-------------------------||--|
B|-10-12-||-0-5-8--3---0-5-8-10-12--||  |
G|-------||-------4-(0)-------------||  | (12x)
D|-------||-------------------------||  |
A|-------||-------------------------||  |
E|-------||-------------------------||--|
Nesta parte, em seguida, vem em 0,52 quando a bateria entrar, mas ele tem um
efeito, depois volta com o som da guitarra, desde o início a 1,29

E|------------------------------------|
B|-----0-5-8--10-12---0-5-8--3-0------|
G|------------------------------------|
D|------------------------------------|
A|------------------------------------|
E|------------------------------------|
primeira parte, em seguida, volta em menos 2,24 e repete sete vezes, depois da sétima vez,
termina assim

E|-----------------|
B|--0-5-8--0-3~----|
G|-----------------|
D|-----------------|
A|-----------------|
E|-----------------|

00:00 / 00:00
Otros videos de esta canción
Repetir
Otros videos de esta canción
Composición de Jack Steadman
Colaboración y revisión:
  • dhonny teles
64 exhibiciones
    • ½ Tono
    • A
    • Bb
    • B
    • C
    • Db
    • D
    • Eb
    • E
    • F
    • F#
    • G
    • Ab
  • Agregar a la lista
    00:00 / 00:00
    OK