Cifra Club

Ivy And Gold

Bombay Bicycle Club

Cifrado: Principal (guitarra y guitarra eléctrica)
tono: C
Intro:
E|---3-5-3--------------------3-5-3---------|
B|---------5-3-1--3-5-3-1-----------5-3-1-3-|
G|------------------------2-0---------------|
D|------------------------------------------|
A|------------------------------------------|
E|------------------------------------------|

E|---3-5-3-----------------------0---1-0----|
B|---------5-3-1--3-5-3-1------1---1-----3-1|
G|------------------------2-0---------------|
D|------------------------------------------|
A|------------------------------------------|
E|------------------------------------------|

C
Waking sitting up right
F
Can't explain the sunlight
C                        G
Wondering why you're not home
C
The loud girl beside you
F
left before you tried to
C         G         C
Work out all the unknowns

C
Blame it all on me when
F
I forget to defend
C                         G
Everything that we worked out
C
Something in her wording
     F
That I cannot help searching
C        G      C
For what memory found

Refrão:
Gm
Thought it stopped just as it start
            F             C  F   C  G  C
But that is not what you are
Gm
You're a layer on my clothes
        F        C  F    C    G   C    F   C  G  C
Made of ivy and gold

C
Meet me in the hallway
F
Bite your lip when I say
C                      G
Never have you left my mind
C
Stop and think it over
F
Smiling moving closer
C       G        C
Oh what delicate time

C
Blame it all on me when
F
I forget to defend
C                         G
Everything that we worked out
C
Something in her wording
F
Guess she was just searching
C        G            C
For some knowledge or sound

(Refrão)
00:00 / 00:00
Otros videos de esta canción
Repetir
Otros videos de esta canción
Composición de Jack Steadman
Colaboración y revisión:
  • Vinicius Fonseca
20 vistas
    • ½ Tono
    • A
    • Bb
    • B
    • C
    • Db
    • D
    • Eb
    • E
    • F
    • F#
    • G
    • Ab
  • Agregar a la lista

    0 comentarios

    Ver todos los comentarios

    ¿Lograste tocar?

    2 Tocaron 0 Aún no

    ¡Graba un video tocando Ivy And Gold y envíanoslo!

    00:00 / 00:00
    OK