Cifra Club

Can You Feel My Heart

Bring Me The Horizon

Cifrado: Principal (guitarra y guitarra eléctrica)
tono: G
Standard Tunning

Intro

These are the notes for the intro and the chorus

E|-7-7-7-10-8-7-7---7-10-8-7-7-7-10-8-7-7---7-------|
B|----------------5-----------------------5---5-----|
G|--------------------------------------------------|
D|--------------------------------------------------|
A|--------------------------------------------------|
E|--------------------------------------------------|

These are the chords for the rhythm guitar for the intro and the chorus

E|------------------------------------------|
B|------------------------------------------|
G|-5---2------------------------------------|
D|-5---2---2---2--5-------------------------|
A|-3---0---2---2--5-------------------------|
E|---------0---0--3-------------------------|

In the 2nd verse there is a mini guitar riff

E|----------------------------------------------|
B|----------------------------------------------|
G|----------------------------------------------|
D|------5--7--9---5h7p5-------------------------|
A|---7-------------------7----------------------|
E|----------------------------------------------|

Bridge

E|----------7--------------7---------------------|
B|--8-----7----5-7-8-----7-----------------------|
G|-----------------------------------------------| Repeat this for the whole bridge
D|-----------------------------------------------|
A|-----------------------------------------------|
E|-----------------------------------------------|

Chorus

1st guitar
E|------------------------------------------|
B|------------------------------------------|
G|-5---2------------------------------------|
D|-5---2---2---2--5-------------------------|
A|-3---0---2---2--5-------------------------|
E|---------0---0--3-------------------------|

2nd guitar
E|------------------------------------------|
B|------------------------------------------|
G|--7---------5---4-------------------------|
D|--x---------x---x--------7----------------|
A|--5---------3---2--------x----------------|
E|-------------------------5----------------|
Composición de Jordan Fish / Lee Malia / Oliver Sykes
Colaboración y revisión:
  • Gabe Jose
1.909 vistas
    • ½ Tono
    • A
    • Bb
    • B
    • C
    • Db
    • D
    • Eb
    • E
    • F
    • F#
    • G
    • Ab
  • Agregar a la lista

    0 comentarios

    Ver todos los comentarios

    ¿Lograste tocar?

    5 Tocaron 2 Aún no

    ¡Graba un video tocando Can You Feel My Heart y envíanoslo!

    00:00 / 00:00
    Otros videos de esta canción
    Repetir Calidad Automático
    Otros videos de esta canción
    00:00 / 00:00
    Automático
    OK