Cifra Club

Aprenda

Y Tu Que Has Hecho Intro

Buena Vista Social Club

Tablatura: Principal (guitarra)
Tom: A#
Tabbed by: mR. BlUE
Email: *

Tuning: regular

In the real version of this song, there are two guitars playing. This tab is for
one guitar with several of the second guitar's notes added in where possible.



e|3--4--3--6--------------------1--2--3--------------------------------6--3-----1-|
B|4--6--4--6-----------------4--3--1--3--3--0--------------4--3--1--1--4--4--4--1-|
G|---------7--3--2--3--4--5--5--------4-------------0--1---5--3--2--3--------3--2-|
D|---------8--------------------------5---------3-------------------3-----------3-|
A|---------8--------------------------5-----------------------------1-----------3-|
E|---------6--------------------------3-----------------------------1-----------1-|

e|----------1--3--2--1--1-------1--------3--4--3--6--------------------1--2--3----|
B|-4--3--4----------------4--3-----4-----4--6--4--6-----------------4--3--1--3--3-|
G|------------------------------------------------7--3--2--3--4--5--5--------4----|
D|------------------------------------------------8--------------------------5----|
A|------------------------------------------------8--------------------------5----|
E|------------------------------------------------8--------------------------5----|

e|---------------------------3--4--6--1--------1----|
B|-0-------------4--3--1--1--4--6--5--1--4--3--3--4-|
G|--------0--1---5--3--2--3-----------2--5--2-----3-|
D|-----3------------------3-----------3-------------|
A|------------------------1-----------3-------------|
E|------------------------1-----------1-------------|
232 reproducciones
    • ½ Tom
    • A
    • Bb
    • B
    • C
    • Db
    • D
    • Eb
    • E
    • F
    • F#
    • G
    • Ab
  • Adicionar à lista

    0 comentarios

    Mostrar mais comentários

    ¿Conseguiste tocar?

    0 Tocaron 0 Ainda não

    Grave um vídeo tocando Y Tu Que Has Hecho Intro e mande pra gente!

    00:00 / 00:00
    outros vídeos desta música
    repetir qualidade Automático
    Outros vídeos desta música
    00:00 / 00:00
    Automático
    OK