Enviar cifraEntrar

Música Urbana

Capital Inicial

Acordes: Principal
reproducciones 485
Tono: C
[Intro] Gm  Cm  Dm  Gm  Cm  Dm
        Gm  Cm  Dm  Gm  Cm  Dm
        Gm  Cm  Dm  Gm  Cm  Dm

 Gm             Cm         Dm
Contra todos e contra ninguém
   Gm                       Cm    Dm
O vento quase sempre nunca tanto diz
   Gm                     Cm   Dm      Gm  Cm  Dm
Estou só esperando o que vai acontecer
 Gm               Cm              Gm                  Dm
Tenho pedras nos sapatos onde os carros estão estacionados
   Gm              Cm              Gm        Dm
Andando por ruas quase escuras os carros passam

 Gm             Cm         Dm
Contra todos e contra ninguém
   Gm                       Cm    Dm
O vento quase sempre nunca tanto diz
   Gm                     Cm   Dm      Gm  Cm  Dm
Estou só esperando o que vai acontecer
 Gm               Cm              Gm                  Dm
Tenho pedras nos sapatos onde os carros estão estacionados
   Gm              Cm              Gm        Dm
Andando por ruas quase escuras os carros passam

( Am  Em )
( Am  Em )

    Am                     C
As ruas tem cheiro de gasolina
  Am       G
E óleo diesel
     Am        C
Por toda plataforma
 Am        G
Toda plataforma
 Am        C
Toda plataforma
   Am               Gm   Cm    Dm
Você não vê a torre ehhh yeah yeah
Gm       Cm      Dm  Gm         Cm      Dm
ou ou ou ou   ou    ou ou ou o o o  o ohu ohu


E|---------------------------------|--------------------|
B|---------------------------------|--------------------|
G|---------------------------------|--------------------|
D|------------------3----5-5-------|----------------3---|
A|--------5----6-------5-----------|-------5---6--------|
E|--3------------------------------|--3-----------------|

E|---------------------------------|--------------------|
B|---------------------------------|--------------------|
G|---------------------------------|--------------------|
D|------------------3----5-5-------|----------------3---|
A|--------5----6-------5-----------|-------5---6--------|
E|--3------------------------------|--3-----------------|


 Gm          Cm        Dm
Tudo errado mas tudo bem
 Gm                        Cm      Dm
Tudo quase sempre como eu sempre quis
 Gm                       Cm       Dm   Gm  Cm    Dm
Sai da minha frente que agora eu quero ver  ouuuu oh
 Gm             Cm               Gm                 Dm
Não importa os seus atos eu não sou mais um desesperado
      Gm              Cm              Gm      Dm
Se eu ando por ruas quase escuras as ruas passam

 Gm          Cm        Dm
Tudo errado mas tudo bem
 Gm                        Cm      Dm
Tudo quase sempre como eu sempre quis
 Gm                       Cm       Dm   Gm  Cm  Dm
Sai da minha frente que agora eu quero ver 
 Gm             Cm               Gm                 Dm
Não importa os seus atos eu não sou mais um desesperado
      Gm              Cm              Gm      Dm
Se eu ando por ruas quase escuras as ruas passam

( Am  Em )
( Am  Em )

    Am                     C
As ruas tem cheiro de gasolina
  Am       C
E óleo diesel
     Am        C
Por toda plataforma
 Am        C
Toda plataforma
 Am        C
Toda plataforma
   Am                    Gm   Cm   Dm
Você não vê a torre ehhh yeah yeah
Gm       Cm      Dm  Gm         Cm      Dm
ou ou ou ou   ou    ou ou ou o o o  o ohu ohu


E|---------------------------------|--------------------|
B|---------------------------------|--------------------|
G|---------------------------------|--------------------|
D|------------------3----5-5-------|----------------3---|
A|--------5----6-------5-----------|-------5---6--------|
E|--3------------------------------|--3-----------------|

E|---------------------------------|--------------------|
B|---------------------------------|--------------------|
G|---------------------------------|--------------------|
D|------------------3----5-5-------|----------------3---|
A|--------5----6-------5-----------|-------5---6--------|
E|--3------------------------------|--3-----------------|
  • 1
  • 2
  • 3
  • 4
  • 5
  • 6
  • 7
  • 8
  • 9
  • 10
  • 11
  • 12

    0 comentarios

      mostrar mas comentarios

      ¿Conseguiste tocar?

      59tocaron3aún no

      ¡Grave un vídeo tocando Música Urbana y envie para nosotros!

      00:00 / 00:00
      outros vídeos desta música
      repetirqualidadeautomática
      • automática
      Outro vídeos desta música
        00:00 / 00:00
        automática
        • automática
        cerrarplay/pause subir/bajar velocidad
          Acordes para:guitarra
          acordes
          cerrar
          OK