Cifra Club

Música Urbana

Capital Inicial

Cifrado: Principal (guitarra y guitarra eléctrica)
Já pensou em usar uma coleção de roupas do Cifra Club? Responda as perguntas abaixo e nos ajude nessa missão! →
tono: Gm
[Intro] Gm  Cm  Dm  Gm  Cm  Dm
        Gm  Cm  Dm  Gm  Cm  Dm
        Gm  Cm  Dm  Gm  Cm  Dm

[Primeira Parte]

Gm                 Cm         Dm
   Contra todos e contra ninguém
   Gm                       Cm    Dm
O vento quase sempre nunca tanto diz
   Gm                     Cm   Dm   Gm  Cm  Dm
Estou só esperando o que vai acontecer

 Gm               Cm    
Tenho pedras nos sapatos 
         Gm                  Dm
Onde os carros estão estacionados
   Gm              Cm          
Andando por ruas quase escuras 
    Gm        Dm
Os carros passam

Gm                 Cm         Dm
   Contra todos e contra ninguém
   Gm                       Cm    Dm
O vento quase sempre nunca tanto diz
   Gm                     Cm   Dm   Gm  Cm  Dm
Estou só esperando o que vai acontecer

 Gm               Cm    
Tenho pedras nos sapatos 
         Gm                  Dm
Onde os carros estão estacionados
   Gm              Cm          
Andando por ruas quase escuras 
    Gm        Dm
Os carros passam

( Am  Em  Am  Em )
( Am  Em  Am  Em ) 

[Refrão]

    Am                     C
As ruas tem cheiro de gasolina
  Am          G
E óleo diesel
     Am           C
Por toda plataforma
 Am           G
Toda plataforma
 Am           C
Toda plataforma
   Am               
Você não vê a torre 

( Gm  Cm  Dm  Gm  Cm  Dm )
( Gm  Cm  Dm )

E|------------------------------------------|
B|------------------------------------------|
G|------------------------------------------|
D|-------------3-----5-5---------------3----|
A|-----5---6-------5------------5---6-------|
E|-3------------------------3---------------|

E|------------------------------------------|
B|------------------------------------------|
G|------------------------------------------|
D|-------------3-----5-5---------------3----|
A|-----5---6-------5------------5---6-------|
E|-3------------------------3---------------|

[Segunda Parte]

Gm                Cm       Dm
   Tudo errado mas   tudo bem
 Gm                        Cm      Dm
Tudo quase sempre como eu sempre quis
 Gm                       Cm       Dm  Gm  Cm  Dm
Sai da minha frente que agora eu quero ver

Gm                 Cm       
   Não importa os seus atos 
        Gm                 Dm
Eu não sou mais um desesperado
      Gm              Cm          
Se eu ando por ruas quase escuras 
    Gm      Dm
As ruas passam

Gm                Cm       Dm
   Tudo errado mas   tudo bem
 Gm                        Cm      Dm
Tudo quase sempre como eu sempre quis
 Gm                       Cm       Dm  Gm  Cm  Dm
Sai da minha frente que agora eu quero ver

Gm                 Cm       
   Não importa os seus atos 
        Gm                 Dm
Eu não sou mais um desesperado
      Gm              Cm          
Se eu ando por ruas quase escuras 
    Gm      Dm
As ruas passam

( Am  Em  Am  Em )
( Am  Em  Am  Em ) 

[Refrão]

    Am                     C
As ruas tem cheiro de gasolina
  Am          G
E óleo diesel
     Am           C
Por toda plataforma
 Am           G
Toda plataforma
 Am           C
Toda plataforma
   Am               
Você não vê a torre 

( Gm  Cm  Dm  Gm  Cm  Dm )
( Gm  Cm  Dm )

E|------------------------------------------|
B|------------------------------------------|
G|------------------------------------------|
D|-------------3-----5-5---------------3----|
A|-----5---6-------5------------5---6-------|
E|-3------------------------3---------------|

E|------------------------------------------|
B|------------------------------------------|
G|------------------------------------------|
D|-------------3-----5-5--------------------|
A|-----5---6-------5------------------------|
E|-3------------------------3---------------|
Composición de Andre Pretorios / Fé Lemos / Flavio Lemos / Renato Russo
2.812 vistas
    • ½ Tono
    • Am
    • Bbm
    • Bm
    • Cm
    • C#m
    • Dm
    • Ebm
    • Em
    • Fm
    • F#m
    • Gm
    • G#m
  • Agregar a la lista

    0 comentarios

    Ver todos los comentarios

    ¿Lograste tocar?

    72 Tocaron 6 Aún no

    ¡Graba un video tocando Música Urbana y envíanoslo!

    00:00 / 00:00
    Outros vídeos desta música
    Repetir Calidad Automático
    Outros vídeos desta música
    00:00 / 00:00
    Automático
    OK