Cifra Club

Deixei de Ser Cowboy Por Ela

Chitãozinho & Xororó

Tablatura: Principal
reproducciones 151
Tono: C
[Intro]

E|---8-------------10----------8----------3--------|
B|8b9--9r8-6--10b11---11r10-8----8--4-3b4---4r3-1--|
G|-------------------------------------------------|
D|-------------------------------------------------|
A|-------------------------------------------------|
E|-------------------------------------------------|

E|---8-------------10-------------------------------|
B|8b9--9r8-6--10b11---11r10-8-3b4-3b4-3b4-3b4--4r3-1|
G|--------------------------------------------------|
D|--------------------------------------------------|
A|--------------------------------------------------|
E|--------------------------------------------------|

                C          C7
Eu sempre acreditei no amor
           F
Agora resolvi mudar
                   G7          F
Escute a minha história, amigo
                 C
A vida gosta de enganar
Eu sempre fui um bom cowboy
               F
Até que encontrei alguém
               G7        F
Com ela fui feliz eu sei
                C
Não sei se foi real, porém

                 G7
Deixei de ser cowboy por ela
             C
Parei de viajar por ela
                 G7         F
Larguei minha paixão por ela
                C
Deixei de ser feliz por ela
               G7
Assim eu me enganei por ela
            C
Por isso resolvi voltar
        C7         F
São segredos da paixão
                G7
Por eu não ser mais peão
                  C
Ela resolveu me abandonar

[Solo]

E|---8-------------10----------8----------3--------|
B|8b9--9r8-6--10b11---11r10-8----8--4-3b4---4r3-1--|
G|-------------------------------------------------|
D|-------------------------------------------------|
A|-------------------------------------------------|
E|-------------------------------------------------|

E|---8-------------10-------------------------------|
B|8b9--9r8-6--10b11---11r10-8-3b4-3b4-3b4-3b4--4r3-1|
G|--------------------------------------------------|
D|--------------------------------------------------|
A|--------------------------------------------------|
E|--------------------------------------------------|

                C          C7
Eu sempre acreditei no amor
           F
Agora resolvi mudar
                   G7          F
Escute a minha história, amigo
                 C
A vida gosta de enganar
Eu sempre fui um bom cowboy
               F
Até que encontrei alguém
               G7        F
Com ela fui feliz eu sei
                C
Não sei se foi real, porém

                 G7
Deixei de ser cowboy por ela
             C
Parei de viajar por ela
                 G7         F
Larguei minha paixão por ela
                C
Deixei de ser feliz por ela
               G7
Assim eu me enganei por ela
            C
Por isso resolvi voltar
        C7         F
São segredos da paixão
                G7
Por eu não ser mais peão
                  C
Ela resolveu me abandonar
Acordes para:
    Colaboración y revision:
    • Sonic Hedgehog
    • Joao

    0 comentarios

      mostrar más comentarios

      ¿Conseguiste tocar?

      13tocaron0aún no

      ¡Graba un vídeo tocando Deixei de Ser Cowboy Por Ela y envianoslo!

      00:00 / 00:00
      outros vídeos desta música
      repetirqualidadeautomática
      Outro vídeos desta música
        00:00 / 00:00
        automática
        OK