Cifra Club

Aprenda

A Rush Of Blood To The Head

Coldplay

Tab de bajo: Versão 2
  Am                C                 Em                Am
G|-----------------|-----------------|-----------------|-----------------|
D|-----------------|-----------------|-2-------2----2--|-----------------| X 2
A|-0-------0----0--|-3-------3----3--|-----------------|-0--------0----0-|
E|-----------------|-----------------|-----------------|-----------------|
  Am
E|-----------------|
D|-----------------|
A|-0-------0----0--|
E|-----------------|

refrão:
  F                                   D
G|-----------------|-----------------|-----------------|-----------------|
D|-----------------|-----------------|-----------------|-----------------|
A|-----------------|-----------------|-5-5-5-5-5-5-5-5-|-5-5-5-5-5-5-5-5-|
E|-1-1-1-1-1-1-1-1-|-1-1-1-1-1-1-1-1-|-----------------|-----------------|
  F                                   D                 Bb
G|-----------------|-----------------|-----------------|-----------------|
D|-----------------|-----------------|-----------------|-----------------| X 2
A|-----------------|-----------------|-5-5-5-5-5-5-5-5-|-----------------|
E|-1-1-1-1-1-1-1-1-|-1-1-1-1-1-1-1-1-|-----------------|-6-6-6-6-6-6-6-6-|

depois do refrão:
  Am                C                 Em                Am
G|-----------------|-----------------|-----------------|-----------------|
D|-----------------|-----------------|-2-------2----2--|-----------------| X 2
A|-0-------0----0--|-3-------3----3--|-----------------|-0--------0----0-|
E|-----------------|-----------------|-----------------|-----------------|

Outro “Meet me by...”
  Am                C                 Em                Am
G|-----------------|-----------------|-----------------|-----------------|
D|-----------------|-----------------|-2-------2----2--|-----------------| X 4
A|-0-------0----0--|-3-------3----3--|-----------------|-0--------0----0-|
E|-----------------|-----------------|-----------------|-----------------|
  Am
E|-----------------|
D|-----------------|
A|-0-------0----0--|
E|-----------------|
Composição de Chris Martin / Guy Berryman / Jon Buckland / Will Champion
Colaboración y revision:
  • Andres Correa
18 reproducciones

0 comentarios

Ver todos os comentários

¿Conseguiste tocar?

0 Tocaram 0 Ainda não

Grave um vídeo tocando A Rush Of Blood To The Head e nos envie!

00:00 / 00:00
outros vídeos desta música
repetir qualidade Automático
Outros vídeos desta música
00:00 / 00:00
Automático
OK