Cifra Club

Hello Mary Lou

Creedence Clearwater Revival

Tab de bajo: Principal
Intro:
G|--------------------------------|--------------------------------|--------------------------------|
D|--------------------------------|7---------------7-------------5-|7---------------7-------------5-|
A|--------------------------------|--------7---------------7-------|--------7---------------7-------|
E|--------------------------------|--------------------------------|--------------------------------|

Refrão / Solo:
G|--------------------------------|--------------------------------|--------------------------------|
D|7---------------7-------------7-|--------7---------------4-----6-|7---------------7-------------7-|
A|--------7---------------7-------|5---------------5---------------|--------7---------------7-------|
E|--------------------------------|--------------------------------|--------------------------------|

G|--------------------------------|--------------------------------|--------------------------------|
D|------------------------------6-|7---------------7-------------7-|------------11----------11------|
A|7---------------7-------9-------|--------7---------------7-------|--------11-------9------------9-|
E|--------7-----------------------|--------------------------------|9-------------------------------|

G|--------------------------------|--------------------------------|
D|------------9-----------9-------|7---------------7-------------6-|
A|--------9--------7------------7-|--------5-----------7----9------|
E|7-------------------------------|--------------------------------|

Verso:
G|--------------------------------|--------------------------------|--------------------------------|
D|7---------------7-------------7-|--------4---7-----------4-----6-|7---------------7-------------7-|
A|--------7---------------7-------|5---------------5---------------|--------7---------------7-------|
E|--------------------------------|--------------------------------|--------------------------------|

G|--------------------------------|--------------------------------|--------------------------------|
D|------------------------------6-|7---------------7-------------7-|--------7---------------4-----6-|
A|7---------------7-------9-------|--------7---------------7-------|5---------------5---------------|
E|--------7-----------------------|--------------------------------|--------------------------------|

G|--------------------------------|--------------------------------|
D|7-------------------------------|------------------------------6-|
A|--------7-------7---------------|7-------5-------7---7----9------|
E|------------------------7-------|--------------------------------|

Refrão Final:
G|--------------------------------|--------------------------------|--------------------------------|
D|7---------------7-------------7-|--------7---------------4-----6-|7---------------7-------------7-|
A|--------7---------------7-------|5---------------5---------------|--------7---------------7-------|
E|--------------------------------|--------------------------------|--------------------------------|

G|--------------------------------|--------------------------------|--------------------------------|
D|------------------------------6-|7---------------7-------------7-|------------11----------11------|
A|7---------------7-------9-------|--------7---------------7-------|--------11-------9------------9-|
E|--------7-----------------------|--------------------------------|9-------------------------------|

G|--------------------------------|--------------------------------|--------------------------------|
D|------------9-----------9-------|7---------------7-------------6-|-------------9-----------9------|
A|--------9--------7------------7-|--------5-----------7----9------|---------9---------7----------7-|
E|7-------------------------------|--------------------------------|7-------------------------------|

G|--------------------------------|--------------------------------|--------------------------------|
D|7---------------7-------------6-|------------9-----------9-------|7---------------7--------7------|
A|--------5-----------7---9-------|--------9---------7-----------7-|--------5-----------7-----------|
E|--------------------------------|7-------------------------------|--------------------------------|
00:00 / 00:00
Otros videos de esta canción
Repetir
Otros videos de esta canción
Compositor no encontrado.
Colaboración y revisión:
  • Ailton Thomazella
327 vistas

0 comentarios

Ver todos los comentarios

¿Lograste tocar?

0 Tocaron 0 Aún no

¡Graba un video tocando Hello Mary Lou y envíanoslo!

00:00 / 00:00
OK