Cifra Club

Love Of My Life

Dave Matthews Band

Cifrado: Principal (guitarra y guitarra eléctrica)
tono: Bb
Intro: Gm7  D7 (2x)  
       Cm  Bb  Eb  D7
E|-------------------------------------------------------|
B|---------------------------------6---------------------|
G|-------------7--5-------------------8------------------|
D|---5--7--8---------7---5--7--8---------7---------------|
A|-------------------------------------------------------|
E|-------------------------------------------------------|

E|-------------------------------------------------------|
B|-------------------------------------------------------|
G|---------5--5--8--7---------7--5-----------------------|
D|---7--8--------------8--8---------5--5-5-5--4--5-5/7---|
A|-------------------------------------------------------|
E|-------------------------------------------------------|

Gm                   Cm            D7
Where you are that's where I wanna be
Gm                            Cm             D7
And through your eyes all the things I wanna see
Gm                Cm     D7
And in the night you are my dream
Gm                   Cm  D7   Cm Bb Eb D7
You're everything to me

Gm                D7
   You're the love  of my life
Gm               D7
   And the breath  in my prayers
Cm             Bb
   Take my hand lead me there
Eb                   D7
   Where, darling, is you? yeah

I can't forget the taste of your mouth
From your lips all the heavens pour out
I can't forget when we are one
With you alone I am free

Gm    Gm7  Cm         D7         Eb
Eve - ry - day, every night you alone
 D7                   Gm
You're the love of my life

Solo: Gm7  D7 (2x)
      Cm  Bb  Eb  D7 (2x)

Gm    Gm7  Cm         D7         Eb
Eve - ry - day, every night you alone
 D7                   Gm
You're the love of my life

We go dancing in the moonlight
With the starlight in your eyes
We go dancing till the sunrise
You and me we're gonna dance dance dance
00:00 / 00:00
Otros videos de esta canción
Repetir
Otros videos de esta canción
Composición de Carlos Santana / Dave Matthews
Colaboración y revisión:
  • Moises Carneiro
  • Pedro Furtado
148 vistas
    • ½ Tono
    • A
    • Bb
    • B
    • C
    • Db
    • D
    • Eb
    • E
    • F
    • F#
    • G
    • Ab
  • Agregar a la lista

    0 comentarios

    Ver todos los comentarios

    ¿Lograste tocar?

    0 Tocaron 0 Aún no

    ¡Graba un video tocando Love Of My Life y envíanoslo!

    00:00 / 00:00
    OK