Cifra Club

Touch Peel and Stand

Days Of The New

Cifrado: Principal (guitarra y guitarra eléctrica)
tono: G
tuning: tune your guitar 1 1/2 steps down, then the 6th string to 
drop-d tuning. For the really lone tones in the song.

Intro (a sort of struming pattern)

-----------------------------------------------------------------
-----------------------------------------------------------------
-5/7-----7-7---5/7------7----------------------------------------
-5/7-----7-7---5/7------7---3/5--5-5-5---3/5--5-5-5---0h3--3-3-3-
-3/5-----5-5---3/5------5---3/5--5-5-5---3/5--5-5-5---0h3--3-3-3-
------0------------0-0------3/5--5-5-5---3/5--5-5-5---0h3--3-3-3-

-----------------------------------------------------------------
-----------------------------------------------------------------
-----------------------------------------------------------------
-0h3--3-3-3---xx---3h5--5-5-5-3-0---repeat like this a 2 times---
-0h3--3-3-3---xx---3h5--5-5-5-3-0--------------------------------
-0h3--3-3-3---xx---3h5--5-5-5-3-0--------------------------------

-----------------------------------------------------------------
-----------------------------------------------------------------
-3/5--5-5--------------------------------------------------------
-3/5--5-5---5-3-0---played after the second intro to start verse-
-1/3--3-3---5-3-0------------------------------------------------
------------5-3-0------------------------------------------------

verses
-----------------------------------------------------------------
-----------------------------------------------------------------
-----------7--------------------5-5-5----------------------------
-0-0-3h5---7---0-3-5b-5-3-5-3---5-5-5---5-3-0-3-5---0-3-5-3-0----
-0-0-3h5---5---0-3-5b-5-3-5-3---3-3-3---5-3-0-3-5---0-3-5-3-0----
-0-0-3h5-------0-3-5b-5-3-5-3-----------5-3-0-3-5---0-3-5-3-0----

bridge
-----------------------------------------------------------------
-----------------------------------------------------------------
-----------------------------------------------------------------
-3h5p3p0-3h5-0---3h5p3p0-0---3h5p3p0-3h5-3-----------------------
-3h5p3p0-3h5-0---3h5p3p0-0---3h5p3p0-3h5-3-----------------------
-3h5p3p0-3h5-0---3h5p3p0-0---3h5p3p0-3h5-3-----------------------

outro
-----------------------------------------------------------------
-----------------------------------------------------------------
-7\-----------5--------------------------------------------------
-7\---5---3---5------play the intro riff the rest of the way out-
-5\---5---3---3--------------------------------------------------
------5---3------------------------------------------------------


só falta o solo... vou ver se consigo tirar ou se encontro por ae... falowz
00:00 / 00:00
Otros videos de esta canción
Repetir
Otros videos de esta canción
Composición de Travis Meeks
Colaboración y revisión:
  • Roger Cobain
129 vistas
    • ½ Tono
    • A
    • Bb
    • B
    • C
    • Db
    • D
    • Eb
    • E
    • F
    • F#
    • G
    • Ab
  • Agregar a la lista

    0 comentarios

    Ver todos los comentarios

    ¿Lograste tocar?

    0 Tocaron 1 Aún no

    ¡Graba un video tocando Touch Peel and Stand y envíanoslo!

    00:00 / 00:00
    OK