Cifra Club

The Woman Who Was Also A Mongoose

Dead Milkmen

Tab de bajo: Principal
Selo Cifra Club: esta cifra foi revisada para atender aos critérios oficiais da nossa Equipe de Qualidade.
Date: Sun, 03 Aug 1997 15:43:03 -0600
From: just me and my taco 
Reply-To: *
X-Mailer: Mozilla * (Win95; I)
To: *, *, *

THE WOMAN WHO WAS ALSO A MONGOOSE
from Not Richard, but Dick
Transcribbed by Benny *

BASS LINE:


|-------------------------------------------------------|
|.-----------------------------------------------------.|
|.-5-5--5--5--5-2-2--2--2--2--------------5-5--5--5--5-.|
|----------------------------3-3--3--3--3---------------|


|------------------|
|.----------------.|
|.----------------.|
|--5-5-5-5-5-5-5-5-|


|-------------------------------------------------------|
|.-----------------------------------------------------.|
|.-5-5--5--5--5-2-2--2--2--2--------------5-5--5--5--5-.|
|----------------------------3-3--3--3--3---------------|


|------------------|
|.----------------.|
|.----------------.|
|--5-5-5-5-5-5-5-5-|


|-----|
|--0--|
|--5--|
|-----|


Otros videos de esta canción
    17 exhibiciones

    Afinação da cifra

    Afinador online

    Ops (: Contenido disponible solo en portugués.
    OK