Cifra Club

Himno del centenario del Sevilla F.C

El Arrebato

Cifrado: Principal (guitarra y guitarra eléctrica)
tono: Am
E|-----------0------------------0-1-0-----0---|-0-0-0-0-0-0-------|
B|-1-----1-3---3----------0-1-3-------3-1---3-|-------------3-1-0-|
G|---0-0---------0----0-2---------------------|-------------------|
D|--------------------------------------------|-------------------|
A|--------------------------------------------|-------------------|
E|--------------------------------------------|-------------------|

E|-0-------------------------------|------------------------------|
B|---3-3-1--1-1-1-1-1-0-1-0---0----|--| Repetir el cuerpo pero la 1ª
G|--------------------------2---2-1|--p| isada es ahora en la 3ª ---
D|---------------------------------|--| cuerda libre----------------
A|---------------------------------|------------------------------|
E|---------------------------------|------------------------------|

Estribillo:

E|-----0-0-0-0-----3-------0-1-1-1-1-0---5-0---------0-0-0-0-1-0--|
B|-1-3---------3-1---3---3-------------3---------1-3--------------|
G|----------------------------------------------------------------|
D|----------------------------------------------------------------|
A|----------------------------------------------------------------|
E|----------------------------------------------------------------|

                           ooohhhhhh,ooooohhhhh,ohhhhhh

E|--------------------------| 0-----3------------------------------
B|-3-1-0-3-1-0-1-1-1-1-3-1-0|--3-1---3--1-0---3------0-1---0-1-3--|
G|--------------------------|---------------2---2--2-----2--------|
D|--------------------------|-------------------------------------|
A|--------------------------|-------------------------------------|
E|--------------------------|-------------------------------------|
00:00 / 00:00
Otros videos de esta canción
Repetir
Otros videos de esta canción
Composición de El Arrebato
93 exhibiciones
    • ½ Tono
    • Am
    • Bbm
    • Bm
    • Cm
    • C#m
    • Dm
    • Ebm
    • Em
    • Fm
    • F#m
    • Gm
    • G#m
  • Agregar a la lista
    00:00 / 00:00
    OK