Cifra Club

Fuego en el fuego

Eros Ramazzotti

Cifrado: Principal (guitarra y guitarra eléctrica)
Acompaña nuestras novedades de Cifra Club en español.
¡Sigue nuestro perfil en Instagram!
tono: F#m
Intro:  F#m  D  E  F#m  D  E
Al inicio de esta cancion se escucha esto,checalo en
la cancion: La 'h' significa que tienes que tensar la
cuerda hacia arriba, y la 'p' es un pull of significa
que tienes que martillear la cuerda, el ligado lo
marco con un '*' y el slide con una '/'.

riff 1        riff 2
E|---14---| E----------------|
B|---14---| B---19--17--18h--|
G|---14---| G----------------|
D|--------| D----------------|
A|--------| A----------------|
E|--------| E----------------|

              F#m D E
Fuego en el fuego
        F#m            D  E
Son tus ojos dentro de mí
          F#m  D  E
Cuando te veo
          F#m              D E
Sé que entiendes todo de mí
                A            D E
Que es lo que quieres tú de mí
              F#m           D E
Que es lo que buscas tú en mi
          F#m              Bm
Dejas tu huella en mi corazón
       C#m      F#m D E
Yo te siento así.
          F#m D E
Quiero morirme
       F#m            D E
En tus labios desvanecer
          F#m  D E
Quiero sentirte
          F#m                 D E
Cuando tu pecho se va a encender
          A           D  E
Como dos pequeños volcanes
          F#m           D   E
Quiero sentirlo en mis manos
            F#m             Bm
Donde tu instinto se une al mío
        C#m   D
Encontrarás ahí
E
Y las almas se unirán.
A                    E
La noche es casi perfecta             [coro]
F#m              D E       A
Disfrutaremos la vida los dos
                  F#m     D
Porque estamos buscando amor
  E
Y el no espera
 A         E
Es la emoción más directa que hay
F#m             D E      A
Mas no será infinita porque
                   F#m    D
Somos fuego en el fuego y ya
E                  F#m D E
Estamos quemándonos.

            F#m  D E
Fuego en el fuego
        F#m               D E
Esta pasión la tuya y la mía
            F#m   D E
Es casi un juego ya
           F#m           D E
Mezcla de música y fantasía
        A           D E
Hace subir las emociones
          F#m        D E
Todas las sensaciones
              F#m                Bm
Sube hasta el sol y caes por tu piel
       C#m        D
La más dulce que hay
E
Y las almas se unirán.

Coro

Gm            Cm7 Cm7 Bm7
Abrazado a ti
  Am7        D7
Llenaré mi piel de tu calor latino
Gm          Cm7 Cm7 Bm7
Yo te sentiré
  Am7   D
Así te sentiré.

A E F#m D E  A E F#m      (Bridge)


E|---999--9p10--9-----------------------------|
B|-----------------12--12*10--9--10--12-------|
G|---------------------------------------9p11-|
D|--------------------------------------------|
A|--------------------------------------------|
E|--------------------------------------------|

E|------------12--10--9--7------7/9--|
B|--7--9--10----------------10-------|
G|-----------------------------------|
D|-----------------------------------|
A|-----------------------------------|
E|-----------------------------------|

E|--------------9------------------------------------|
B|--101010--12-----12--12*10--9--10--12--------------|
G|---------------------------------------9p11--9--9--|
D|---------------------------------------------------|
A|---------------------------------------------------|
E|---------------------------------------------------|

    D           E
La historia es esta

A                    E
La noche es casi perfecta
F#m              D E       A
Disfrutaremos la vida los dos
                   F#m    D
Somos fuego en el fuego y ya
E                          F#m  D  E  F#m                 riff2
Estamos quemándonos.
       D E                 F#m D E  F#m
Somos fuego en el fuego hoy

Esta es una figurita que de repente hace casi al final
E|-----------------------------------|
B|--9--10--10/12--10--9--7-----7--7--|
G|--------------------------9--------|
D|-----------------------------------|
A|-----------------------------------|
E|-----------------------------------|

       D E                 F#m
Somos fuego en el fuego hoy.

Bueno hasta aqui llega esta rola esta muy padre en
cuanto a los riffs checa bien la cancion y escucha
donde los hace ok. ponle mucha atencion, y pues
cualquier duda,comentario, correccion mandamela
porfavor, te lo agradecere, tambien me late leer notas
si tienes hechame un grito por mail o aqui esta mi icq
78473591, hasta pronto y suerte.
Composición de Eros Ramazzotti
22 vistas
    • ½ Tono
    • Am
    • Bbm
    • Bm
    • Cm
    • C#m
    • Dm
    • Ebm
    • Em
    • Fm
    • F#m
    • Gm
    • G#m
  • Agregar a la lista

    0 comentarios

    Ver todos los comentarios

    ¿Lograste tocar?

    0 Tocaron 0 Aún no

    ¡Graba un video tocando Fuego en el fuego y envíanoslo!

    00:00 / 00:00
    Outros vídeos desta música
    Repetir Calidad Automático
    Outros vídeos desta música
    00:00 / 00:00
    Automático
    OK