Enviar cifraEntrar

A Desconhecida (versão Original)

Fernando Mendes

Acordes: Principal
reproducciones 521
Tono: D
Intro:

Parte 1


E|-----5------------5------------5------------5-----------5-----------3--------------------------|
B|---7----7------7------------7-----------7------7-----7-----------5-----------------------------|
G|-7---------7----------7--6--------6--5------------5--------5--4--------4--6--7-----------------|
D|-----------------------------------------------------------------------------------------------|
A|-----------------------------------------------------------------------------------------------|
E|-----------------------------------------------------------------------------------------------|

 
Parte 2


E|---------7-----------7-----------7-----------7--------7-----------7-----------7-----------7----|
B|------8-----8-----8-----------8-----8-----8--------8-----8-----8-----------8-----8-----8-------|
G|---9-----------9--------9--8-----------8--------7-----------7--------7--6-----------6--------6-|
D|-----------------------------------------------------------------------------------------------|
A|-----------------------------------------------------------------------------------------------|
E|-----------------------------------------------------------------------------------------------|


parte 3

                                                          D
E|-------5-----------5----------5------------------------2---------------------------------------|
B|----5-----5-----5-----5----5-----5---------------------3---------------------------------------|
G|-6-----------6----------6-----------6------------------2---------------------------------------|
D|-------------------------------------------------------0---------------------------------------|
A|-----------------------------------------------------------------------------------------------|
E|------------------------------------------8/3--------------------------------------------------|





D                  F#m         Em              A7
  Numa tarde tão linda de sol     ela me apareceu
                        

                              D
D|-----------------------------------------------------------------------------------------------|
A|--0--0-1--4----------------------------------------------------------------------------------|
E|-----------------------------------------------------------------------------------------------|



D                  F#m     ( 54 53 52 50 )              Em         A7
  Com um sorriso tão triste             um olhar tão profundo já sofreu
D                 F#m           Em              A7          ( 65 57 55 )
  Suas mãos tão pequenas e frias    sua voz tropeçava também
D                F#m                Em               A7
  Me falava da infância de lágrimas    nunca teve ninguém

      D                F#m              Em    A7
Nunca teve amor não sentiu o calor de alguém
      D              F#m  ( 54 53 52 50 )           Em        A7
Nem sequer ouviu a palavra             carinho, seu ninho não resistiu

D        F#m                    Em    A7             D
  Sinceramente eu chorei de tristeza  ao ouvir tanta coisa
              F#m ( 54 53 52 50 )          Em   A7        ( 65 57 55 )
Que a vida oferece             e a gente padece sem querer

D           F#m              Em                  A7
  Depois de tudo o que eu vi    não consigo esquecer
D               F#m           Em                 A7
  Ela me disse adeus e se foi    nem seu nome eu sei dizer

D             F#m                 Em     A7
  De onde ela veio, pra onde ela vai, oh! oh!
D           F#m                    Em    A7        D
  De onde ela veio, pra onde ela vai     não sei dizer


___intro__ parte 1, parte 2 e parte 3
violão 2  D  F#m  Em  A7

      D                F#m              Em    A7
Nunca teve amor não sentiu o calor de alguém
      D              F#m            Em        A7
Nem sequer ouviu a palavra carinho, seu ninho não resistiu

D        F#m                    Em      A7             D
  Sinceramente eu chorei de tristeza    ao ouvir tanta coisa
              F#m         Em           A7
Que a vida oferece     e a gente padece sem querer

D           F#m              Em                  A7
  Depois de tudo o que eu vi    não consigo esquecer
D               F#m           Em                 A7
  Ela me disse adeus e se foi    nem seu nome eu sei dizer

D             F#m  ( 54 53 52 50 )          Em   A7
  De onde ela veio,            pra onde ela vai, oh! oh!
D           F#m                Em   A7        D
  De onde ela veio, pra onde ela vai     não sei dizer
  • 1
  • 2
  • 3
  • 4
  • 5
  • 6
  • 7
  • 8
  • 9
  • 10
  • 11
  • 12
    Acordes para:
      Colaboración y revision:

      0 comentarios

        mostrar mas comentarios

        ¿Conseguiste tocar?

        44tocaron1aún no

        ¡Grave un vídeo tocando A Desconhecida (versão Original) y envie para nosotros!

        00:00 / 00:00
        outros vídeos desta música
        repetirqualidadeautomática
        • automática
        Outro vídeos desta música
          00:00 / 00:00
          automática
          • automática
          Acordes para:guitarra
          dificuldadreproduccionescontribuciones
          cerrarplay/pause subir/bajar velocidad
            acordes
            cerrar
            OK
            Feedback