Cifra Club

Tema The Last Of Us

Gustavo Santaolalla

Chords: Principal (acoustic and electric guitars)
tone: G
[INTRO]

Parte 1 de 4

E|------0-----0-----0-----0-----0-----0-----0-----0----|
B|----0-----0-----0-----0-----0-----0-----0-----0------|
G|-----------------------------------------------------|
D|-17----17----17----17----17----17----17----17--------|
A|-----------------------------------------------------|
E|-----------------------------------------------------|

Parte 2 de 4

E|------0-----0-----0-----0-----0-----0-----0-----0----|
B|----0-----0-----0-----0-----0-----0-----0-----0------|
G|-16--------------------------------------------------|
D|-17----17----17----17----17----17----17----17--------|
A|-----------------------------------------------------|
E|-----------------------------------------------------|

Parte 3 de 4

E|------0-----0-----0-----0-----0-----0-----0-----0----|
B|----0-----0-----0-----0-----0-----0-----0-----0------|
G|-12----12----12----12----12----12----12----12--------|
D|-----------------------------------------------------|
A|-----------------------------------------------------|
E|-0---------------------------------------------------|

Parte 4 de 4

E|------0-----0-----0-----0-----0-----0-----0-----0----|
B|----0-----0-----0-----0-----0-----0-----0-----0------|
G|-12----12----12----12----12----12----12----12--------|
D|-----------------------------------------------------|
A|-----------------------------------------------------|
E|-----------------------------------------------------|

[Primeira parte]

Parte 1 de 6
   Em
E|------0-----0-----0-----0-----0-----0-----0-----0----|
B|----0-----0-----0-----0-----0-----0-----0-----0------|
G|-12-----9----14----11----12----12----12----12--------|
D|-----------------------------------------------------|
A|-----------------------------------------------------|
E|-0---------------------------------------------------|

Parte 2 de 6

E|------0-----0-----0-----0--------0-----0-----0-----0-|
B|----0-----0-----0-----0--------0-----0-----0-----0---|
G|-12-----9----14----11----14/16----16----16----16-----|
D|-----------------------------------------------------|
A|-----------------------------------------------------|
E|-0---------------------------------------------------|

Parte 3 de 6
  Em
E|------------0-----0-----0-----0----------------------|
B|----------0-----0-----0-----0------------------------|
G|-12h14p12-----9----14----11--------------------------|
D|-----------------------------------------------------|
A|-----------------------------------------------------|
E|-0---------------------------------------------------|

Parte 4 de 6

E|------0-----0-----0-----0----------------------------|
B|----0-----0-----0-----0------------------------------|
G|-12----12----12----12--------------------------------|
D|-----------------------------------------------------|
A|-----------------------------------------------------|
E|-----------------------------------------------------|

Parte 5 de 6

E|------0-----0-----------0-----0------0------0------0-|
B|----0-----0-----------0-----0------0------0------0---|
G|-15----14----12h14p12-----9------9------9------9-----|
D|-----------------------------------------------------|
A|-----------------------------------------------------|
E|-0---------------------------------------------------|

Parte 6 de 6

E|------0-----0-----0-----0-----0------0------0------0-|
B|----0-----0-----0-----0-----0------0------0------0---|
G|--9-----9-----9-----9-----9------9------9------9-----|
D|-----------------------------------------------------|
A|-----------------------------------------------------|
E|-----------------------------------------------------|

[Segunda parte]

Parte 1 de 8
          Em                     A
E|--------10----10----10----10----9----9----9----9-----|
B|-12p8------0-----0-----0-----0----0----0----0----0---|
G|------9------9-----9-----9-----9----9----9----9----9-|
D|-----------------------------------------------------|
A|--------------------------------0--------------------|
E|---------0-------------------------------------------|

Parte 2 de 8
   Am                      Em
E|-8-----8-----8-----8-----7-----7-----7---------------|
B|---0-----0-----0-----0-----0-----0-----0-------------|
G|-----9-----9-----9-----9-----9-----9-----9-----------|
D|-----------------------------------------------------|
A|-0---------------------------------------------------|
E|-------------------------0---------------------------|

Parte 3 de 8
          Em                      A 
E|--------10----10----10----10/12-9----9----9----9-----|
B|-12p8------0-----0-----0----------0----0----0----0---|
G|------9------9-----9-----9----------9----9----9----9-|
D|-----------------------------------------------------|
A|--------------------------------0--------------------|
E|--------0--------------------------------------------|

Parte 4 de 8
   Am                       Em
E|-8-----8-----8-----8------7-----7-----7--------------|
B|---0-----0-----0-----0------0-----0-----0----12p8----|
G|-----9-----9-----9-----9------9-----9-----9-------9--|
D|-----------------------------------------------------|
A|-0---------------------------------------------------|
E|--------------------------0--------------------------|

Parte 5 de 8
   A4                      A
E|-5-----5-----5-----5-----5-----5-----5-----5---------|
B|-----5-----5-----5-----5-----5-----5-----5-----5-----|
G|---7-----7-----7-----7-----6-----6-----6-----6-------|
D|-----------------------------------------------------|
A|-0-----------------------0---------------------------|
E|-----------------------------------------------------|

Parte 6 de 8
   Am
E|-3-----2-----0h2p0-----------------------------------|
B|-----5-----5---------5-3h5p3---3---------------------|
G|---5-----5---------5---------5-----------------------|
D|-----------------------------------------------------|
A|-0---------------------------------------------------|
E|-----------------------0-----------------------------|

Parte 7 de 8

E|-2----2-----2-----2-----2-----2-----2-----2----------|
B|----5-----5-----5-----5-----5-----5-----5-----5------|
G|--5-----5-----5-----5-----5-----5-----5-----5--------|
D|-----------------------------------------------------|
A|-0---------------------------------------------------|
E|-----------------------------------------------------|

Parte 8 de 8
   Em
E|-3-----0-----0-----0-----0-----0-----0---------------|
B|-----5-----5-----5-----5-----5-----5-----------------|
G|---4-----4-----4-----4-----4-----4-------------------|
D|-----------------------------------------------------|
A|-----------------------------------------------------|
E|-0---------------------------------------------------|


[Primeira parte]

Parte 1 de 5
   Em
E|------0-----0-----0-----0-----0-----0-----0-----0----|
B|----0-----0-----0-----0-----0-----0-----0-----0------|
G|-12-----9----14----11----12----12----12----12--------|
D|-----------------------------------------------------|
A|-----------------------------------------------------|
E|-0---------------------------------------------------|

Parte 2 de 5

E|------0-----0-----0-----0--------0-----0-----0-----0-|
B|----0-----0-----0-----0--------0-----0-----0-----0---|
G|-12-----9----14----11----14/16----16----16----16-----|
D|-----------------------------------------------------|
A|-----------------------------------------------------|
E|-0---------------------------------------------------|

Parte 3 de 5

E|------0-----0-----0-----0-----0-----0-----0-----0----|
B|----0-----0-----0-----0-----0-----0-----0-----0------|
G|-12-----9----14----11----12----12----12----12--------|
D|-----------------------------------------------------|
A|-----------------------------------------------------|
E|-0---------------------------------------------------|

Parte 4 de 5

E|------0-----0-----------0-----0----------------------|
B|----0-----0-----------0-----0------------------------|
G|-15----14----12h14p12-----9--------------------------|
D|-----------------------------------------------------|
A|-----------------------------------------------------|
E|-0---------------------------------------------------|

Parte 5 de 5

E|------0-----0-----0-----0-----0------0------0------0-|
B|----0-----0-----0-----0-----0------0------0------0---|
G|--9-----9-----9-----9-----9------9------9------9-----|
D|-----------------------------------------------------|
A|-----------------------------------------------------|
E|-----------------------------------------------------|

[Terceira parte]

Parte 1 de 7
   C7M
E|---------------7-------------------------7-----------|
B|-------------8-----------8-------------8-----------8-|
G|--------9-----------9-------------9-----------9------|
D|-10--10---10-----10---10---10--10---10-----10---10---|
A|-----------------------------------------------------|
E|-----------------------------------------------------|

Parte 2 de 7
   G
E|-----------7--------------------7--------------------|
B|-----8---------8----------8---------8----------------|
G|-7-------7---------7----------7---------7------------|
D|---9---9-----9---9---9--9---9-----9---9--------------|
A|-----------------------------------------------------|
E|-----------------------------------------------------|

Parte 1 de 7
   C7M
E|---------------7-------------------------7-----------|
B|-------------8-----------8-------------8-----------8-|
G|--------9-----------9-------------9-----------9------|
D|-10--10---10-----10---10---10--10---10-----10---10---|
A|-----------------------------------------------------|
E|-----------------------------------------------------|

Parte 2 de 7
   G
E|-----------7--------------------7--------------------|
B|-----8---------8----------8---------8----------------|
G|-7-------7---------7----------7---------7------------|
D|---9---9-----9---9---9--9---9-----9---9--------------|
A|-----------------------------------------------------|
E|-----------------------------------------------------|

Parte 3 de 7
   Bm
E|-------------10----------------------10--------------|
B|-----------8-----------8-----------8-----------8-----|
G|------11----------11----------11----------11---------|
D|-9--9----9------9----9---9--9----9------9----9-------|
A|-----------------------------------------------------|
E|-----------------------------------------------------|

Parte 4 de 7
   C7M
E|---------------10-------------------------10---------|
B|-------------8-----------8-------------8-----------8-|
G|--------9-----------9-------------9-----------9------|
D|-10--10---10-----10---10---10--10---10-----10---10---|
A|-----------------------------------------------------|
E|-----------------------------------------------------|

Parte 5 de 7
   Bm
E|-------------10----------------------10--------------|
B|-----------8-----------8-----------8-----------8-----|
G|------11----------11----------11----------11---------|
D|-9--9----9------9----9---9--9----9------9----9-------|
A|-----------------------------------------------------|
E|-----------------------------------------------------|

Parte 6 de 7
   C7M
E|----------------7-------------------------7----------|
B|--------8------------8-------------8----------8------|
G|--------------9-----------9-------------9----------9-|
D|-10--10---10------10---10---10--10---10----10---10---|
A|-----------------------------------------------------|
E|-----------------------------------------------------|

Parte 7 de 7
   G
E|------------7--------------------7-------------------|
B|------8---------8----------8-------------------------|
G|----------7---------7----------7---------------------|
D|-9--9---9-----9---9---9--9---9-----------------------|
A|-----------------------------------------------------|
E|-----------------------------------------------------|

[Primeira parte]

Parte 1 de 6
   Em
E|------0-----0-----0-----0-----0-----0-----0-----0----|
B|----0-----0-----0-----0-----0-----0-----0-----0------|
G|-12-----9----14----11----12----12----12----12--------|
D|-----------------------------------------------------|
A|-----------------------------------------------------|
E|-0---------------------------------------------------|

Parte 2 de 6

E|------0-----0-----0-----0--------0-----0-----0-----0-|
B|----0-----0-----0-----0--------0-----0-----0-----0---|
G|-12-----9----14----11----14/16----16----16----16-----|
D|-----------------------------------------------------|
A|-----------------------------------------------------|
E|-0---------------------------------------------------|

Parte 3 de 6

E|------0-----0-----0-----0-----0-----0-----0-----0----|
B|----0-----0-----0-----0-----0-----0-----0-----0------|
G|-12-----9----14----11----12----12----12----12--------|
D|-----------------------------------------------------|
A|-----------------------------------------------------|
E|-0---------------------------------------------------|

Parte 4 de 6

E|------0-----0-----------0-----0----------------------|
B|----0-----0-----------0-----0------------------------|
G|-15----14----12h14p12-----9--------------------------|
D|-----------------------------------------------------|
A|-----------------------------------------------------|
E|-0---------------------------------------------------|

Parte 5 de 6

E|------0-----0-----0-----0----------------------------|
B|----0-----0-----0-----0------------------------------|
G|--9-----9-----9-----9--------------------------------|
D|-----------------------------------------------------|
A|-----------------------------------------------------|
E|-----------------------------------------------------|

Parte 4 de 6

E|------0-----0-----------0-----0----------------------|
B|----0-----0-----------0-----0------------------------|
G|-15----14----12h14p12-----9--------------------------|
D|-----------------------------------------------------|
A|-----------------------------------------------------|
E|-0---------------------------------------------------|

Parte 5 de 6

E|------0-----0-----0-----0----------------------------|
B|----0-----0-----0-----0------------------------------|
G|--9-----9-----9-----9--------------------------------|
D|-----------------------------------------------------|
A|-----------------------------------------------------|
E|-----------------------------------------------------|

Parte 6 de 6
                       F             E5
E|------0-----------0----------------0-----------12----|
B|----0-----------0------------------0-----------------|
G|-15----14h15p14------12------------4-----------------|
D|-----------------------------------2-----------------|
A|-----------------------------------2-----------------|
E|-0-------------------13------------0-----------------|


00:00 / 00:00
Other videos of this song
Repeat
Other videos of this song
53.318 views
    • ½ Tone
    • A
    • Bb
    • B
    • C
    • Db
    • D
    • Eb
    • E
    • F
    • F#
    • G
    • Ab
  • Add to list

Afinação da cifra

Afinador online

    00:00 / 00:00
    Chapters
    • Apresentação
    • Tocando a Música
    • Dicas Iniciais
    • Tocando a Introdução
    • Ensinando a Introdução
    • Dicas da Primeira Parte
    • Acorde da Música
    • Tocando a Primeira Parte
    • Ensinando a Primeira Parte
    • Dicas da Segunda Parte
    • Acordes da Música
    • Tocando a Segunda Parte
    • Ensinando o Ritmo e os Acordes da Segunda Parte
    • Ensinando o Dedilhado da Segunda Parte
    • Dicas da Primeira Parte - Repetição 1
    • Tocando a Primeira Parte - Repetição 1
    • Ritmo da Primeira Parte - Repetição 1
    • Dedilhado da Primeira Parte - Repetição 1
    • Dicas da Terceira Parte
    • Acordes da Terceira Parte
    • Tocando a Terceira Parte
    • Ensinando o Ritmo da Terceira Parte
    • Ensinando a Terceira Parte
    • Dicas da Primeira Parte - Repetição 2
    • Acordes da Primeira Parte - Repetição 2
    • Tocando a Primeira Parte - Repetição 2
    • Ritmo da Primeira Parte - Repetição 2
    • Dedilhado da Primeira Parte - Repetição 2
    • Encerramento
    OK