Cifra Club

Perdoname

Hamlet

Cifrado: Principal (guitarra y guitarra eléctrica)
tono: Eb
E|-3----3-3\4--4-4| 8-- 8- 8- 8--8
B|-3----3-3\4--4-4| 8-- 8- 8- 8--8
G|-5----5-5\6--6-6\10--10-10-10--10| (2 VECES)
D|-5----5-5\6--6-6\10--10-10-10--10|
A|-3----3-3\4--4-4| 8-- 8- 8- 8--8
E|-3----3-3\4--4-4| 8-- 8- 8- 8--8

E|-3-------------------------------------------------------------------|
B|-3-------------------------------------------------------------------|
G|-5-------------------------------------------------------------------|
D|-5------------------5*--6*-----------------------5*--6*--------------|
A|-3----------------------------------3*----------------------------3*-|
E|-3-------------------------------------------------------------------|
          \s    ¿donde estas?    ¿lejos d aki?¿en ke lugar?    ¿como es alli?

E|-------------------------------------------------------------------------|
B|-------------------------------------------------------------------------|
G|-------------------------------------------------------------------------|
D|-----------------5*--6*----------------------5*--6*----------------------|
A|--------------------------------3*---------------------------------------|
E|-------------------------------------------------------------------------|
             ¿puedes  ver?    ¿puedes oir?quiero saber      ke estas en pazzz--->


E|-3----3-3\4--4-4| 8-- 8- 8- 8--8
B|-3----3-3\4--4-4| 8-- 8- 8- 8--8
G|-5----5-5\6--6-6\10--10-10-10--10| (3 VECES)
D|-5----5-5\6--6-6\10--10-10-10--10|
A|-3----3-3\4--4-4| 8-- 8- 8- 8--8
E|-3----3-3\4--4-4| 8-- 8- 8- 8--8

E|--------3------------------------------------------------------------|
B|--------3------------------------------------------------------------|
G|--------5------------------------------------------------------------|
D|--------5------------------------------------------------------------|
A|--------3-----------------5-6----5-6---------------------------------|
E|--------3---------------3------34----3\s-----------------------------|
            atardecer,oigo tu voz,        te escucho hablar, y creo que
E|----------------------------------------------------------------------------------------|
B|----------------------------------------------------------------------------------------|
G|----------------------------------------------------------------------------------------|
D|----------------------------------------------------------------------------------------|
A|--------5-6------5-6--------------------5-6-------5-6--------------5-6-----5-6----------|
E|------3-------34-----3\s--------------3-------34------3----------3-----34------3--------|
               me    llamaras....   voy a entrar     una vez mas   pero tu   tu ya no estas---->




E|-3----3-3\4--4-4| 8-- 8- 8- 8--8
B|-3----3-3\4--4-4| 8-- 8- 8- 8--8
G|-5----5-5\6--6-6\10--10-10-10--10| (4 VECES)
D|-5----5-5\6--6-6\10--10-10-10--10|
A|-3----3-3\4--4-4| 8-- 8- 8- 8--8
E|-3----3-3\4--4-4| 8-- 8- 8- 8--8

E|------------------------------------------------------------------------------------|
B|------------------------------------------------------------------------------------|
G|------------------------------------------------------------------------------------|
D|---------1------------1-------------1------------1-------------1------------1-------|
A|---3-3-1---1-1-1-1-3-1-1-1----3-3-1---1-1-1-1-3-1-1-1----3-3-1---1-1-1-1-3-1-1-1----|
E|------------------------------------------------------------------------------------|

E|------------------------------------------------------------------------------------|
B|------------------------------------------------------------------------------------|
G|------------------------------------------------------------------------------------|
D|---------1------------1-------------1------------1-------------1------------1-------|
A|---3-3-1---1-1-1-1-3-1-1-1----3-3-1---1-1-1-1-3-1-1-1----3-3-1---1-1-1-1-3-1-1-1----|
E|------------------------------------------------------------------------------------|
          hay esperando un silencio    no lo keremos pensar     quizas porke ya conocemos

E|----------------------------------------------------3-3-3\1-1-1\4--4-4----6-6-6------|
B|----------------------------------------------------3-3-3\1-1-1\4--4-4----6-6-6------|
G|----------------------------------------------------5-5-5\3-3-3\6--6-6----8-8-8------|
D|---------1------------1-----------------------------5-5-5\3-3-3\6--6-6----8-8-8------|
A|---3-3-1---1-1-1-1-3-1-1-1--------------------------3-3-3\1-1-1\4--4-4----6-6-6------|
E|----------------------------------------------------3-3-3\1-1-1\4--4-4----6-6-6------|
        que un dia nos ha d callar   para siempre jamaassssssssssss  te siento entre nosotros

E|------3-3-3\1-1-1\4--4-4----6-6-6----|
B|------3-3-3\1-1-1\4--4-4----6-6-6----|
G|------5-5-5\3-3-3\6--6-6----8-8-8----|
D|------5-5-5\3-3-3\6--6-6----8-8-8----| (2 veces desde el final del punteo)
A|------3-3-3\1-1-1\4--4-4----6-6-6----|
E|------3-3-3\1-1-1\4--4-4----6-6-6----|
     (aki viene un grito) para siempre jamas....


E|-3-------------------------------------------------------------------|
B|-3-------------------------------------------------------------------|
G|-5-------------------------------------------------------------------|
D|-5------------------5*--6*-----------------------5*--6*--------------| (2 veces el punteo)
A|-3----------------------------------3*----------------------------3*-|
E|-3-------------------------------------------------------------------|

E|-3--3\10--10--11--11|
B|-3--3\10--10--11--11|
G|-5--5\12--12--13--13|
D|-5--5\12--12--13--13|
A|-3--3\10--10--11--11|
E|-3--3\10--10--11--11|
        (esta es la parte del perdoname......)
Compositor não encontrado.
    • ½ Tono
    • A
    • Bb
    • B
    • C
    • Db
    • D
    • Eb
    • E
    • F
    • F#
    • G
    • Ab
  • Agregar a la lista

    0 comentarios

    Ver todos los comentarios

    ¿Lograste tocar?

    0 Tocaron 0 Aún no

    ¡Graba un video tocando Perdoname y envíanoslo!

    00:00 / 00:00
    Outros vídeos desta música
    Repetir Calidad Automático
    Outros vídeos desta música
    00:00 / 00:00
    Automático
    OK