Cifra Club

Dont Want Her To Stay

Hot Action Cop

Tab de bajo: Principal
This song is awesome!! It starts out as a bass solo which is pretty easy.
G----------------------------------------------------------|
D----------------------------------------------------------|
A-------------7---16----------7-------------16------16-----|
E--15-12-7-0-------15-12-7-0------15-12-7-0---17-15---17-15|
B----------------------------------------------------------|

G-------------------------|
D-------------------------| i think you do this 3 times, but i'm not too
A-7--7/10-12-16-----------| sure
E----------------17-15-12-|
B-------------------------|intro

G-----------------------------------------------------| Not sure about verse
D-----------------------------------------------------| 
A-7-7-7-7-77------------------10-10-10-10-1010-----7--| 
E------------10-10-10-10-1010------------------7~-----| 
B-----------------------------------------------------|

G------------------------------------------------------------|
D------------------------------------------------------------|
A-7-7-7-77-7-777---------------|7-7-7-77-7-777---------------|
E----------------7-7-7-77-|-------------------7-7-7-77-7-777-|
B------------------------------------------------------------|

G----------------------------------------------------------------------------|
D----------------------------------------------------------------------------|
A-7-7-7-77-7-777----------------------------------------------7-7-7-77-7-777-|
E----------------7-7-7-77-7-777-5-5-5-55-5-555-7-7-7-77-7-777----------------|
B----------------------------------------------------------------------------|

G---------------| That whole long thing was the chorus/prechorus and it's
D---------------| really long.
A---------------|
E-7-7-7-77-7-777|
B---------------|

G---------------------------------------------------| Then do the verse
D---------------------------------------------------|
A-7-7-7-7-77------------------10-10-10-10-1010-----7|
E------------10-10-10-10-1010------------------7~---|
B---------------------------------------------------|


Play pre/post verse riff
G------------------------|
D------------------------|
A-7-7/10-12-16-----------|
E----------------17-15-12|
B------------------------|

G----------------------------------------------------------------------------|
D----------------------------------------------------------------------------|
A-7-7-7-77-7-777----------------------------------------------7-7-7-77-7-777-|
E----------------7-7-7-77-7-777-5-5-5-55-5-555-7-7-7-77-7-777----------------|
B----------------------------------------------------------------------------|
Play this twice for the break


G---------------------------------------------------|
D---------------------------------------------------|
A-7-7-7-7-77------------------10-10-10-10-1010-----7| verse
E------------10-10-10-10-1010------------------7~---|
B---------------------------------------------------|


G------------------------------------------------------------|
D------------------------------------------------------------|
A-7-7-7-77-7-777---------------|7-7-7-77-7-777---------------| chorus
E----------------7-7-7-77-|-------------------7-7-7-77-7-777-|
B------------------------------------------------------------|

G----------------------------------------------------------------------------|
D----------------------------------------------------------------------------|
A-7-7-7-77-7-777----------------------------------------------7-7-7-77-7-777-|
E----------------7-7-7-77-7-777-5-5-5-55-5-555-7-7-7-77-7-777----------------|
B----------------------------------------------------------------------------|

G---------------|
D---------------|
A---------------|
E-7-7-7-77-7-777|


Play pre/post verse riff
G------------------------|
D------------------------|
A-7-7/10-12-16-----------|
E----------------17-15-12|
B------------------------|

G-----|
D-----| End on this.            There you have it, I'm not too completely
A-7---|                          sure about the verse, but it should be
E--0-7|                          pretty good.
B-----|
00:00 / 00:00
Otros videos de esta canción
Repetir
Otros videos de esta canción
Composición de Rob Werthner
18 vistas

0 comentarios

Ver todos los comentarios

¿Lograste tocar?

0 Tocaron 0 Aún no

¡Graba un video tocando Dont Want Her To Stay y envíanoslo!

00:00 / 00:00
OK