Cifra Club

The Power of Love

Huey Lewis

Cifrado: Principal (guitarra y guitarra eléctrica)
tono: A
    C         C/E                  F           G          G/B
      (PM---)     (PM---)     (PM)    (PM---)     (PM---)
E|--------------------------------------------------------------|
B|--------------------------------------------------------------|
G|--------------------------------------------------------------|
D|--5---5---5---2-------------------3---3---3---5---5---5---5---|
A|--3---3---3---3---3---3---2-------3---3---3---5---5---5---2---|
E|--------------0---0---0---0---0---1---1---1---3---3---3-------|


    C         C/E                  F           G          G/B
      (PM---)     (PM---)     (PM)    (PM---)     (PM---)
E|--------------------------------------------------------------|
B|--------------------------------------------------------------|
G|--------------------------------------------------------------|
D|--5---5---5---2-------------------3---3---3---5---5---5---5---|
A|--3---3---3---3---3---3---2-------3---3---3---5---5---5---2---|
E|--------------0---0---0---0---0---1---1---1---3---3---3-------|

    C         C/E                  F           G
      (PM---)     (PM---)     (PM)    (PM---)
E|--------------------------------------------------------------|
B|--------------------------------------------------------------|
G|--------------------------------------------------------------|
D|--5---5---5---2-------------------3---3---3---5---5-----------|
A|--3---3---3---3---3---3---2-------3---3---3---5---5-----------|
E|--------------0---0---0---0---0---1---1---1---3---3-----------|
       
[Riff 2 - para Versos e Solo] 
* Use um drive um mais leve ou timbre limpo para esse riff

       Cm7                         F
          (PM-------)
E|--------------------------------------------------|
B|------4---------------4---3---4---6~--6---4---3---|
G|------3---5---3---5---3---3---3---5~--5---3---3---|
D|----------5---3---5-------------------------------|
A|--------------------------------------------------|
E|--------------------------------------------------|

       Cm7                         F
          (PM-------)
E|--------------------------------------------------|
B|----------------------4---3---4---6~--6---4---3---|
G|------5~--5---3---5---3---3---3---5~--5---3---3---|
D|------5~--5---3---5-------------------------------|
A|--------------------------------------------------|
E|--------------------------------------------------|

[Primeira Parte] 

    Cm7                F
The power of love is a curious thing
Cm7                 F
Make a one man weep, make another man sing
Cm7                F
Change a hawk to a little white dove
Cm7                   F
More than a feeling    that's the power of love

( Cm7  F )

Cm7                   F
Tougher than diamonds, whips like cream
 Cm7                       F
Stronger and harder than a bad girl's dream
Cm7                 F
Make a bad one good make a wrong one right
Cm7                          F
Power of love that keeps you home at night

[Refrão] 

  G/B C                  C/E  F           G
        You don't need money,  don't take fame
 G/B  C               C/E            F         G
        Don't need no credit card to ride this train
        G/B   C              C/E             F         G
        It's strong and it's sudden and it's cruel sometimes
               Bb         F         G
        But it might just save your life
                            Cm7     F
        That's the power of love
                            Cm7   F  Eb  Bb 
        That's the power of love

[Segunda Parte] 

Cm7                    F
First time you feel it, it might make you sad
Cm7                    F
Next time you feel it it might make you mad
Cm7                    F
But you'll be glad baby when you've found
Cm7                    F
That's the power makes the world go'round

[Refrão] 

 G/B  C                  C/E  F           G
        And it don't take money,  don't take fame
 G/B  C               C/E            F         G
        Don't need no credit card to ride this train
        G/B   C              C/E                  F         G
        It's strong and it's sudden and it can be cruel sometimes
               Bb         F         G
        But it might just save your life
        

[Terceira Parte] 

Eb              G7/D           Cm7
  They say that all in love is fair
          F7/13
Yeah, but you don't care
Ab7M           Eb/G
  But you know what to do
Fm7/9           Eb/G
   When it gets hold of you
Ab7M                G4              G
  And with a little help from above
                Cm7           F
 You feel the power of love
                       Cm7    F
 You feel the power of love
                       Cm7    F
 Can you feel it ?            Hmmm

[Solo De Guitarra] Cm7  F (12x)

[Refrão] 

(G/B) C                  C/E  F           G
        You don't need money,  don't take fame
(G/B) C               C/E            F         G
        Don't need no credit card to ride this train
       
(G/B) C                  C/E  F           G
   Tougher than diamonds and stronger than steel
(G/B) C                  C/E  F           G
   You won't feel nothin' till you feel
(G/B) C                  C/E  F           G
   You feel the power, just the power of love
(G/B) C                  C/E  F           G
   That's the power, that's the power of love
(G/B) C                  C/E  F       G
           You feel the power of love
(G/B) C                  C/E  F  G
     You feel the power of love
(G/B) C                  C/E  F  G
   Feel the power of love

( G/B ) 
( C  C/E  F  G )
00:00 / 00:00
Otros videos de esta canción
Repetir
Otros videos de esta canción
Composición de Colla / Hayes / Lewis
Colaboración y revisión:
7.925 exhibiciones
    • ½ Tono
    • A
    • Bb
    • B
    • C
    • Db
    • D
    • Eb
    • E
    • F
    • F#
    • G
    • Ab
  • Agregar a la lista
    00:00 / 00:00
    OK