Cifra Club

Mi Jesus Mi Amado

Jesús Adrián Romero

Cifrado: Versão 2 (guitarra y guitarra eléctrica)
tono: F
para la primera parte
 F                       Dm         Bb                 C
E|------------------------------------------------------------------|
B|-----8----8----10-----------8-----8-----10------------------------|
G|------10---10----------9-10---10---10-----12-----10-11-10---------|
D|--------10---10------10---------10---10-----10-12--------12-------|
A|------------------------------------------------------------------|
E|------------------------------------------------------------------|

segunda parte :
  F                       Dm         Bb                 C
E|--------------------------------------------------------------------|
B|----9----9----11-------------9-9-----9------11-----------------------|
G|-----11---11------------10-11---11----11------13-----11-11-13-11----|
D|-------11---11--------11----------11----11------11-13-----------13---|
A|---------------------------------------------------------------------|
E|--------------------------------------------------------------------|


vamos con la cancion junto con punteo:
 F                              Dm
Vengo a rendirme a tus pies    agradecido señor
E|------------------------------------------------------------------|
B|-----8----8----10-----------8-----8-----10------------------------|
G|------10---10----------9-10---10---10-----12-----10-11-10---------|
D|--------10---10------10---------10---10-----10-12--------12-------|
A|------------------------------------------------------------------|
E|------------------------------------------------------------------|

                           Bb             Csus   C
me perdonaste             cambiaste mi corazón
E|--------------------------------------------------|
B|-10------------------------------------10---------|
G|---12-----10-11-10--------10-10-10-10-----12-------|
D|-----10-12--------12-----------------12-----------|
A|---------------------------------------------------|
E|---------------------------------------------------|

F                            Dm
tu vida diste por mi    en una muerte tan cruel
E|------------------------------------------------------------------|
B|-----8----8----10-----------8-----8-----10------------------------|
G|------10---10----------9-10---10---10-----12-----10-11-10---------|
D|--------10---10------10---------10---10-----10-12--------12-------|
A|------------------------------------------------------------------|
E|------------------------------------------------------------------|

                           Bb               Csus   C
por que me amaste         siendo yo un vil pecador.
E|--------------------------------------------------|
B|-10------------------------------------10---------|
G|---12-----10-11-10--------10-10-10-10-----12-------|
D|-----10-12--------12-----------------12-----------|
A|---------------------------------------------------|
E|---------------------------------------------------|

aqui vamos con rasgeo:


Gm                        Dm               C
quiero postrarme ante ti Jesús y en silencio
Gm                     Dm             C
reconocer que tu amor por mi no merezco.

      F         Csus  C
E  Jesús  E  amado
Gm                   Dm            C
quiero postrarme ante ti para adorar
      F       Csus    C
E  Jesús  E  amado
Gm                       Dm         C
quiero regar con mis lágrimas tus pies
Gm                     Dm       C
quiero besarlos y asi permanecer
Bb             C            F
y derramar ante ti todo mi ser.


gosenla la cacion es muy buena.
 espero que les haya gustado
 califiquenlo ok bye nos vemos......
si tienen algunas correciones informenme...
book mi name es miler copajira arispe
00:00 / 00:00
Otros videos de esta canción
Repetir
Otros videos de esta canción
Compositor no encontrado.
26 exhibiciones
    • ½ Tono
    • A
    • Bb
    • B
    • C
    • Db
    • D
    • Eb
    • E
    • F
    • F#
    • G
    • Ab
  • Agregar a la lista
    00:00 / 00:00
    OK