Cifra Club

Pretend

Josie And The Pussycats

Tab de bajo: Principal
This is actually a pretty good song. I didn't write the timing for it down, but it
isn't too hard to figure out. Here it is...

Verse
G|-----------------------|
D|-----------------------|
A|--3--3--3--3-----------|
E|-------------5--5--5--5|

G|-------------------------|
D|-------------------------|
A|-------------------------|
E|--0--0--0--0--3p-1p-3p-1p|

Pre-Chorus
G|-----------------------------------|--------------------|
D|-----------------------------------|--------------------|
A|--3-3-3-3--------------------------|--------------------|
E|----------5-5-5-5-0-0-0-0-1-1-1-1--|--3-3-3-3-3-3-3-3-3-|

Chorus
G|-------------|---------------------|
D|----------3--|---------------------|
A|-------------|---------------------|
E|--0---3------|---3-3-3-3-3-3-3-3---|

Post Chorus
G|----------------------------------------------|-----------------|
D|----------------------------------------------|-----------------|
A|--3--3--3--3----------------------------------|-3-3-3-3-3-3-3-3-|
E|-------------3--3--3--3-0--0--0--0--1--1--1--1|-----------------|

(GUITAR SOLO)

STRUCTURE
Verse [2x]
Pre-Chorus [2x]
Chorus [3x]
Post Chorus [3x]
Verse [2x]
Pre-Chorus [3x]
Chorus [3x]
Post Chorus [3x]
-=Guitar Solo=- 
Pre-Chorus [3x]
Chorus [3x]
Post Chorus [4-5x, then fades out]

That's about it, it's actually a pretty cool song to play. If there are any comments
or suggestions on how I could improve this tab, email me at *.
Thanks!
====
00:00 / 00:00
Otros videos de esta canción
Repetir
Otros videos de esta canción
Composición de Josie McCoy
5 exhibiciones
00:00 / 00:00
OK